  0
SECTION
  2
HEADER
  9
$ACADVER
  1
AC1009
  9
$INSBASE
 10
0.0
 20
0.0
 30
0.0
  9
$EXTMIN
 10
-170.0164782349211
 20
-265.80211091866681
 30
-0.0015258207003583
  9
$EXTMAX
 10
370.0164807494923
 20
537.08808227102497
 30
0.0000000349246037
  9
$LIMMIN
 10
0.0
 20
0.0
  9
$LIMMAX
 10
0.0
 20
0.0
  9
$ORTHOMODE
 70
     0
  9
$REGENMODE
 70
     1
  9
$FILLMODE
 70
     1
  9
$QTEXTMODE
 70
     0
  9
$MIRRTEXT
 70
     1
  9
$DRAGMODE
 70
     2
  9
$LTSCALE
 40
15.24
  9
$OSMODE
 70
   231
  9
$ATTMODE
 70
     1
  9
$TEXTSIZE
 40
0.0
  9
$TRACEWID
 40
1.0
  9
$TEXTSTYLE
  7
STANDARD
  9
$CLAYER
  8
DATA
  9
$CELTYPE
  6
BYLAYER
  9
$CECOLOR
 62
   256
  9
$DIMSCALE
 40
1.0
  9
$DIMASZ
 40
0.18
  9
$DIMEXO
 40
0.0625
  9
$DIMDLI
 40
0.38
  9
$DIMRND
 40
0.0
  9
$DIMDLE
 40
0.0
  9
$DIMEXE
 40
0.18
  9
$DIMTP
 40
0.0
  9
$DIMTM
 40
0.0
  9
$DIMTXT
 40
0.18
  9
$DIMCEN
 40
0.09
  9
$DIMTSZ
 40
0.0
  9
$DIMTOL
 70
     0
  9
$DIMLIM
 70
     0
  9
$DIMTIH
 70
     1
  9
$DIMTOH
 70
     1
  9
$DIMSE1
 70
     0
  9
$DIMSE2
 70
     0
  9
$DIMTAD
 70
     0
  9
$DIMZIN
 70
     0
  9
$DIMBLK
  1

  9
$DIMASO
 70
     1
  9
$DIMSHO
 70
     1
  9
$DIMPOST
  1

  9
$DIMAPOST
  1

  9
$DIMALT
 70
     0
  9
$DIMALTD
 70
     2
  9
$DIMALTF
 40
25.399999999999999
  9
$DIMLFAC
 40
1.0
  9
$DIMTOFL
 70
     0
  9
$DIMTVP
 40
0.0
  9
$DIMTIX
 70
     0
  9
$DIMSOXD
 70
     0
  9
$DIMSAH
 70
     0
  9
$DIMBLK1
  1

  9
$DIMBLK2
  1

  9
$DIMSTYLE
  2
STANDARD
  9
$DIMCLRD
 70
     0
  9
$DIMCLRE
 70
     0
  9
$DIMCLRT
 70
     0
  9
$DIMTFAC
 40
1.0
  9
$DIMGAP
 40
0.09
  9
$LUNITS
 70
     2
  9
$LUPREC
 70
     4
  9
$SKETCHINC
 40
0.1
  9
$FILLETRAD
 40
0.0
  9
$AUNITS
 70
     0
  9
$AUPREC
 70
     0
  9
$MENU
  1
acad
  9
$ELEVATION
 40
0.0
  9
$PELEVATION
 40
0.0
  9
$THICKNESS
 40
0.0
  9
$LIMCHECK
 70
     0
  9
$BLIPMODE
 70
     0
  9
$CHAMFERA
 40
0.0
  9
$CHAMFERB
 40
0.0
  9
$SKPOLY
 70
     0
  9
$TDCREATE
 40
2455455.4686805559
  9
$TDUPDATE
 40
2455455.4699367592
  9
$TDINDWG
 40
0.0011385301
  9
$TDUSRTIMER
 40
0.0011383449
  9
$USRTIMER
 70
     1
  9
$ANGBASE
 50
0.0
  9
$ANGDIR
 70
     0
  9
$PDMODE
 70
     1
  9
$PDSIZE
 40
-2.0
  9
$PLINEWID
 40
0.0
  9
$COORDS
 70
     0
  9
$SPLFRAME
 70
     0
  9
$SPLINETYPE
 70
     6
  9
$SPLINESEGS
 70
     8
  9
$ATTDIA
 70
     0
  9
$ATTREQ
 70
     1
  9
$HANDLING
 70
     1
  9
$HANDSEED
  5
11BC
  9
$SURFTAB1
 70
     6
  9
$SURFTAB2
 70
     6
  9
$SURFTYPE
 70
     6
  9
$SURFU
 70
     6
  9
$SURFV
 70
     6
  9
$UCSNAME
  2

  9
$UCSORG
 10
0.0
 20
0.0
 30
0.0
  9
$UCSXDIR
 10
1.0
 20
0.0
 30
0.0
  9
$UCSYDIR
 10
0.0
 20
1.0
 30
0.0
  9
$PUCSNAME
  2

  9
$PUCSORG
 10
0.0
 20
0.0
 30
0.0
  9
$PUCSXDIR
 10
1.0
 20
0.0
 30
0.0
  9
$PUCSYDIR
 10
0.0
 20
1.0
 30
0.0
  9
$USERI1
 70
     0
  9
$USERI2
 70
     0
  9
$USERI3
 70
     0
  9
$USERI4
 70
     0
  9
$USERI5
 70
     0
  9
$USERR1
 40
0.0
  9
$USERR2
 40
0.0
  9
$USERR3
 40
0.0
  9
$USERR4
 40
0.0
  9
$USERR5
 40
0.0
  9
$WORLDVIEW
 70
     1
  9
$SHADEDGE
 70
     3
  9
$SHADEDIF
 70
    70
  9
$TILEMODE
 70
     1
  9
$MAXACTVP
 70
    64
  9
$PLIMCHECK
 70
     0
  9
$PEXTMIN
 10
1.0000000000000000E+020
 20
1.0000000000000000E+020
 30
1.0000000000000000E+020
  9
$PEXTMAX
 10
-1.0000000000000000E+020
 20
-1.0000000000000000E+020
 30
-1.0000000000000000E+020
  9
$PLIMMIN
 10
0.0
 20
0.0
  9
$PLIMMAX
 10
12.0
 20
9.0
  9
$UNITMODE
 70
     0
  9
$VISRETAIN
 70
     0
  9
$PLINEGEN
 70
     1
  9
$PSLTSCALE
 70
     0
  0
ENDSEC
  0
SECTION
  2
TABLES
  0
TABLE
  2
VPORT
 70
     1
  0
VPORT
  2
*ACTIVE
 70
     0
 10
0.0
 20
0.0
 11
1.0
 21
1.0
 12
100.0000012572856
 22
135.64298567617911
 13
0.0
 23
0.0
 14
1.0
 24
1.0
 15
0.0
 25
0.0
 16
0.0
 26
0.0
 36
1.0
 17
0.0
 27
0.0
 37
0.0
 40
808.80104123771412
 41
1.961916461916462
 42
50.0
 43
0.0
 44
0.0
 50
0.0
 51
0.0
 71
     0
 72
  2000
 73
     1
 74
     1
 75
     0
 76
     0
 77
     0
 78
     0
  0
ENDTAB
  0
TABLE
  2
LTYPE
 70
    11
  0
LTYPE
  2
CONTINUOUS
 70
     0
  3
Solid line
 72
    65
 73
     0
 40
0.0
  0
LTYPE
  2
STYLE_05
 70
     0
  3

 72
    65
 73
     2
 40
0.208282470703125
 49
0.069427490234375
 49
-0.13885498046875
  0
ENDTAB
  0
TABLE
  2
LAYER
 70
     5
  0
LAYER
  2
0
 70
     0
 62
     7
  6
CONTINUOUS
  0
LAYER
  2
DATA
 70
     0
 62
     7
  6
CONTINUOUS
  0
LAYER
  2
HIBINO-BASE
 70
     0
 62
     7
  6
CONTINUOUS
  0
LAYER
  2
SPEC
 70
     0
 62
     7
  6
CONTINUOUS
  0
LAYER
  2
DIMNSIONS
 70
     0
 62
     7
  6
CONTINUOUS
  0
ENDTAB
  0
TABLE
  2
STYLE
 70
     3
  0
STYLE
  2
STANDARD
 70
     0
 40
0.0
 41
1.0
 50
0.0
 71
     0
 42
0.0
  3
txt
  4
BIGFONT.SHX
  0
ENDTAB
  0
TABLE
  2
VIEW
 70
     0
  0
ENDTAB
  0
TABLE
  2
UCS
 70
     0
  0
ENDTAB
  0
TABLE
  2
APPID
 70
     3
  0
APPID
  2
ACAD
 70
     0
  0
APPID
  2
ACADANNOTATIVE
 70
     0
  0
APPID
  2
ACAD_MLEADERVER
 70
     0
  0
ENDTAB
  0
TABLE
  2
DIMSTYLE
 70
     2
  0
DIMSTYLE
  2
STANDARD
 70
     0
  3

  4

  5

  6

  7

 40
1.0
 41
0.18
 42
0.0625
 43
0.38
 44
0.18
 45
0.0
 46
0.0
 47
0.0
 48
0.0
140
0.18
141
0.09
142
0.0
143
25.399999999999999
144
1.0
145
0.0
146
1.0
147
0.09
 71
     0
 72
     0
 73
     1
 74
     1
 75
     0
 76
     0
 77
     0
 78
     0
170
     0
171
     2
172
     0
173
     0
174
     0
175
     0
176
     0
177
     0
178
     0
  0
ENDTAB
  0
ENDSEC
  0
SECTION
  2
BLOCKS
  0
BLOCK
  8
0
  2
$MODEL_SPACE
 70
     0
 10
0.0
 20
0.0
 30
0.0
  3
$MODEL_SPACE
  1

  0
ENDBLK
  5
A40
  8
0
  0
BLOCK
 67
     1
  8
0
  2
$PAPER_SPACE
 70
     0
 10
0.0
 20
0.0
 30
0.0
  3
$PAPER_SPACE
  1

  0
ENDBLK
  5
A3C
 67
     1
  8
0
  0
ENDSEC
  0
SECTION
  2
ENTITIES
  0
LINE
  5
D3
  8
HIBINO-BASE
  6
CONTINUOUS
 62
     7
 10
-169.99999999999989
 20
537.06362999999999
 30
0.0
 11
370.0
 21
537.06362999999999
 31
0.0
  0
LINE
  5
D4
  8
HIBINO-BASE
  6
CONTINUOUS
 62
     7
 10
370.0
 20
-242.93637000000001
 30
0.0
 11
-169.99999999999989
 21
-242.93637000000001
 31
0.0
  0
LINE
  5
D5
  8
HIBINO-BASE
  6
CONTINUOUS
 62
     7
 10
-169.99999999999989
 20
-242.93637000000001
 30
0.0
 11
-169.99999999999989
 21
537.06362999999999
 31
0.0
  0
TEXT
  5
D6
  8
HIBINO-BASE
 62
     7
 10
-148.44799999999989
 20
-262.1624033999999
 30
0.0
 40
10.800132539062499
  1
Hibino Corporation
 41
0.7
 11
-148.44799999999989
 21
-251.3622708609374
 31
0.0
 73
     3
  0
LINE
  5
D7
  8
HIBINO-BASE
  6
CONTINUOUS
 62
     7
 10
370.0
 20
537.06362999999999
 30
0.0
 11
370.0
 21
-242.93637000000001
 31
0.0
  0
LINE
  5
D8
  8
HIBINO-BASE
  6
CONTINUOUS
 62
     7
 10
100.0
 20
-175.4363699999999
 30
0.0
 11
370.0
 21
-175.4363699999999
 31
0.0
  0
LINE
  5
D9
  8
HIBINO-BASE
  6
CONTINUOUS
 62
     7
 10
100.0
 20
-242.93637000000001
 30
0.0
 11
100.0
 21
-175.4363699999999
 31
0.0
  0
TEXT
  5
DA
  8
HIBINO-BASE
 62
     7
 10
102.7
 20
-182.96244999999999
 30
0.0
 40
4.8865234374999993
  1
NOTE
 41
0.7
 11
102.7
 21
-178.0759265625
 31
0.0
 73
     3
  0
LINE
  5
DB
  8
HIBINO-BASE
  6
CONTINUOUS
 62
     7
 10
205.0
 20
-242.93637000000001
 30
0.0
 11
205.0
 21
-175.4363699999999
 31
0.0
  0
TEXT
  5
DC
  8
HIBINO-BASE
 62
     7
 10
207.69999999999999
 20
-182.96244999999999
 30
0.0
 40
4.8865234374999993
  1
TITLE
 41
0.7
 11
207.69999999999999
 21
-178.0759265625
 31
0.0
 73
     3
  0
TEXT
  5
DD
  8
HIBINO-BASE
 62
     7
 10
250.2051699999999
 20
-262.1624033999999
 30
0.0
 40
10.800132539062499
  1
ヒビノ株式会社
 41
0.7
 11
250.2051699999999
 21
-251.3622708609374
 31
0.0
 73
     3
  0
LINE
  5
DE
  8
HIBINO-BASE
  6
CONTINUOUS
 62
     7
 10
100.0
 20
-212.9363699999999
 30
0.0
 11
370.0
 21
-212.9363699999999
 31
0.0
  0
TEXT
  5
DF
  8
HIBINO-BASE
 62
     7
 10
245.19999999999999
 20
-220.29348999999999
 30
0.0
 40
4.8865234374999993
  1
DRAWN
 41
0.7
 11
245.19999999999999
 21
-215.4069665625
 31
0.0
 73
     3
  0
TEXT
  5
E0
  8
HIBINO-BASE
 62
     7
 10
170.19999999999999
 20
-220.29348999999999
 30
0.0
 40
4.8865234374999993
  1
DATE
 41
0.7
 11
170.19999999999999
 21
-215.4069665625
 31
0.0
 73
     3
  0
TEXT
  5
E1
  8
HIBINO-BASE
 62
     7
 10
140.19999999999999
 20
-220.29348999999999
 30
0.0
 40
4.8865234374999993
  1
SCALE
 41
0.7
 11
140.19999999999999
 21
-215.4069665625
 31
0.0
 73
     3
  0
TEXT
  5
E2
  8
HIBINO-BASE
 62
     7
 10
207.69999999999999
 20
-220.29348999999999
 30
0.0
 40
4.8865234374999993
  1
DESIGN
 41
0.7
 11
207.69999999999999
 21
-215.4069665625
 31
0.0
 73
     3
  0
TEXT
  5
E3
  8
HIBINO-BASE
 62
     7
 10
320.19999999999999
 20
-220.29348999999999
 30
0.0
 40
4.8865234374999993
  1
DRAWING NO.
 41
0.7
 11
320.19999999999999
 21
-215.4069665625
 31
0.0
 73
     3
  0
TEXT
  5
E4
  8
HIBINO-BASE
 62
     7
 10
282.69999999999999
 20
-220.29348999999999
 30
0.0
 40
4.8865234374999993
  1
CHECK
 41
0.7
 11
282.69999999999999
 21
-215.4069665625
 31
0.0
 73
     3
  0
LINE
  5
E5
  8
HIBINO-BASE
  6
CONTINUOUS
 62
     7
 10
143.12499999999989
 20
-239.18637000000001
 30
0.0
 11
154.375
 21
-227.93637000000001
 31
0.0
  0
TEXT
  5
E6
  8
HIBINO-BASE
 62
     7
 10
141.24999999999989
 20
-231.26320000000001
 30
0.0
 40
4.8865234374999993
  1
1
 41
0.7
 11
141.24999999999989
 21
-226.37667656249999
 31
0.0
 73
     3
  0
LINE
  5
E7
  8
HIBINO-BASE
  6
CONTINUOUS
 62
     7
 10
137.5
 20
-242.93637000000001
 30
0.0
 11
137.5
 21
-212.9363699999999
 31
0.0
  0
LINE
  5
E8
  8
HIBINO-BASE
  6
CONTINUOUS
 62
     7
 10
167.5
 20
-242.93637000000001
 30
0.0
 11
167.5
 21
-212.9363699999999
 31
0.0
  0
LINE
  5
E9
  8
HIBINO-BASE
  6
CONTINUOUS
 62
     7
 10
242.5
 20
-212.9363699999999
 30
0.0
 11
242.5
 21
-242.93637000000001
 31
0.0
  0
LINE
  5
EA
  8
HIBINO-BASE
  6
CONTINUOUS
 62
     7
 10
317.5
 20
-212.9363699999999
 30
0.0
 11
317.5
 21
-242.93637000000001
 31
0.0
  0
LINE
  5
EB
  8
HIBINO-BASE
  6
CONTINUOUS
 62
     7
 10
279.99999999999989
 20
-242.93637000000001
 30
0.0
 11
279.99999999999989
 21
-212.9363699999999
 31
0.0
  0
TEXT
  5
EC
  8
HIBINO-BASE
 62
     7
 10
170.06961999999999
 20
-234.34542999999999
 30
0.0
 40
4.8865234374999993
  1
'10.09.
 41
0.7
 11
170.06961999999999
 21
-229.4589065625
 31
0.0
 73
     3
  0
TEXT
  5
ED
  8
HIBINO-BASE
 62
     7
 10
152.5
 20
-238.39816103199939
 30
0.0
 40
4.8865234374999993
  1
3
 41
0.7
 11
152.5
 21
-233.5116375944994
 31
0.0
 73
     3
  0
TEXT
  5
EE
  8
HIBINO-BASE
 62
     7
 10
247.01743003310389
 20
-234.34542999999999
 30
0.0
 40
4.8865234374999993
  1
T.Ootake
 41
0.7
 11
247.01743003310389
 21
-229.4589065625
 31
0.0
 73
     3
  0
TEXT
  5
EF
  8
HIBINO-BASE
 62
     7
 10
111.65000000000001
 20
-237.00837000000001
 30
0.0
 40
9.7730468749999986
  1
A4
 41
0.7
 11
111.65000000000001
 21
-227.23532312500001
 31
0.0
 73
     3
  0
TEXT
  5
F0
  8
HIBINO-BASE
 62
     7
 10
102.875
 20
-220.794735
 30
0.0
 40
4.8865234374999993
  1
PAPER SIZE
 41
0.7
 11
102.875
 21
-215.90821156249999
 31
0.0
 73
     3
  0
LINE
  5
F1
  8
SPEC
  6
CONTINUOUS
 62
     7
 10
-147.49999999999989
 20
507.06362999999988
 30
0.0
 11
295.0
 21
507.06362999999988
 31
0.0
  0
LINE
  5
F2
  8
SPEC
  6
CONTINUOUS
 62
     7
 10
-147.49999999999989
 20
495.81362999999988
 30
0.0
 11
295.0
 21
495.81362999999988
 31
0.0
  0
LINE
  5
F3
  8
SPEC
  6
CONTINUOUS
 62
     7
 10
-147.49999999999989
 20
450.81362999999988
 30
0.0
 11
295.0
 21
450.81362999999988
 31
0.0
  0
LINE
  5
F4
  8
SPEC
  6
CONTINUOUS
 62
     7
 10
-147.49999999999989
 20
462.06362999999988
 30
0.0
 11
295.0
 21
462.06362999999988
 31
0.0
  0
LINE
  5
F5
  8
SPEC
  6
CONTINUOUS
 62
     7
 10
-147.49999999999989
 20
473.31362999999988
 30
0.0
 11
295.0
 21
473.31362999999988
 31
0.0
  0
LINE
  5
F6
  8
SPEC
  6
CONTINUOUS
 62
     7
 10
-147.49999999999989
 20
439.56362999999988
 30
0.0
 11
295.0
 21
439.56362999999988
 31
0.0
  0
LINE
  5
F7
  8
SPEC
  6
CONTINUOUS
 62
     7
 10
-147.49999999999989
 20
417.06362999999988
 30
0.0
 11
295.0
 21
417.06362999999988
 31
0.0
  0
LINE
  5
F8
  8
SPEC
  6
CONTINUOUS
 62
     7
 10
-50.0
 20
428.31362999999988
 30
0.0
 11
295.0
 21
428.31362999999988
 31
0.0
  0
LINE
  5
F9
  8
SPEC
  6
CONTINUOUS
 62
     7
 10
-147.49999999999989
 20
405.81362999999988
 30
0.0
 11
295.0
 21
405.81362999999988
 31
0.0
  0
LINE
  5
FA
  8
SPEC
  6
CONTINUOUS
 62
     7
 10
-147.49999999999989
 20
394.56362999999988
 30
0.0
 11
295.0
 21
394.56362999999988
 31
0.0
  0
LINE
  5
FB
  8
SPEC
  6
CONTINUOUS
 62
     7
 10
-147.49999999999989
 20
484.56362999999988
 30
0.0
 11
295.0
 21
484.56362999999988
 31
0.0
  0
LINE
  5
FC
  8
SPEC
  6
CONTINUOUS
 62
     7
 10
-147.49999999999989
 20
507.06362999999988
 30
0.0
 11
-147.49999999999989
 21
327.06362999999999
 31
0.0
  0
TEXT
  5
FD
  8
SPEC
 62
     7
 10
-143.74999999999989
 20
511.24343999999979
 30
0.0
 40
7.3297851562499989
  1
仕様
 41
0.7
 11
-143.74999999999989
 21
518.57322515624992
 31
0.0
 73
     3
  0
LINE
  5
FE
  8
SPEC
  6
CONTINUOUS
 62
     7
 10
-50.0
 20
507.06362999999988
 30
0.0
 11
-50.0
 21
327.06362999999999
 31
0.0
  0
LINE
  5
FF
  8
SPEC
  6
CONTINUOUS
 62
     7
 10
295.0
 20
507.06362999999988
 30
0.0
 11
295.0
 21
327.06362999999999
 31
0.0
  0
TEXT
  5
100
  8
SPEC
 62
     7
 10
-144.9462579565795
 20
498.56811315852138
 30
0.0
 40
5.7009440104166647
  1
形式
 41
0.7
 11
-144.9462579565795
 21
504.26905716893799
 31
0.0
 73
     3
  0
TEXT
  5
101
  8
SPEC
 62
     7
 10
-48.033274626441553
 20
498.54507476234062
 30
0.0
 40
5.7009440104166647
  1
コンデンサー型 
 41
0.7
 11
-48.033274626441553
 21
504.24601877275728
 31
0.0
 73
     3
  0
TEXT
  5
102
  8
SPEC
 62
     7
 10
-144.79183425885719
 20
476.07467807496499
 30
0.0
 40
5.7009440104166647
  1
周波数特性
 41
0.7
 11
-144.79183425885719
 21
481.77562208538171
 31
0.0
 73
     3
  0
TEXT
  5
103
  8
SPEC
 62
     7
 10
-47.240534671631359
 20
475.9701593617296
 30
0.0
 40
5.7009440104166647
  1
30Hz～18kHz
 41
0.7
 11
-47.240534671631359
 21
481.67110337214632
 31
0.0
 73
     3
  0
TEXT
  5
104
  8
SPEC
 62
     7
 10
-144.88944671048469
 20
487.5167681760243
 30
0.0
 40
5.7009440104166647
  1
指向特性
 41
0.7
 11
-144.88944671048469
 21
493.21771218644091
 31
0.0
 73
     3
  0
TEXT
  5
105
  8
SPEC
 62
     7
 10
-47.321762563619387
 20
487.52459683652688
 30
0.0
 40
5.7009440104166647
  1
ハイパーカーディオイド
 41
0.7
 11
-47.321762563619387
 21
493.2255408469436
 31
0.0
 73
     3
  0
TEXT
  5
106
  8
SPEC
 62
     7
 10
-145.10811270738671
 20
465.24739497171163
 30
0.0
 40
5.7009440104166647
  1
開回路感度
 41
0.7
 11
-145.10811270738671
 21
470.94833898212818
 31
0.0
 73
     3
  0
TEXT
  5
107
  8
SPEC
 62
     7
 10
-47.048413206491489
 20
464.76468440129162
 30
0.0
 40
5.7009440104166647
  1
-42dBV re 1V/Pa
 41
0.7
 11
-47.048413206491489
 21
470.46562841170822
 31
0.0
 73
     3
  0
TEXT
  5
108
  8
SPEC
 62
     7
 10
-144.81536218283139
 20
453.8057643301434
 30
0.0
 40
5.7009440104166647
  1
最大音圧レベル
 41
0.7
 11
-144.81536218283139
 21
459.50670834056012
 31
0.0
 73
     3
  0
TEXT
  5
109
  8
SPEC
 62
     7
 10
-47.662127620862378
 20
453.63308228605962
 30
0.0
 40
5.7009440104166647
  1
133dB SPL(TDH 1%%%)　^I
 41
0.7
 11
-47.662127620862378
 21
459.33402629647622
 31
0.0
 73
     3
  0
TEXT
  5
10A
  8
SPEC
 62
     7
 10
-144.877994606871
 20
442.62184287001332
 30
0.0
 40
5.7009440104166647
  1
等価雑音レベル
 41
0.7
 11
-144.877994606871
 21
448.32278688042987
 31
0.0
 73
     3
  0
TEXT
  5
10B
  8
SPEC
 62
     7
 10
-47.222293461723787
 20
442.20457122541387
 30
0.0
 40
5.7009440104166647
  1
21dB SPL(Aウェイト)
 41
0.7
 11
-47.222293461723787
 21
447.90551523583048
 31
0.0
 73
     3
  0
TEXT
  5
10C
  8
SPEC
 62
     7
 10
-145.22538903297689
 20
408.88756013292999
 30
0.0
 40
5.7009440104166647
  1
インピーダンス
 41
0.7
 11
-145.22538903297689
 21
414.58850414334682
 31
0.0
 73
     3
  0
TEXT
  5
10D
  8
SPEC
 62
     7
 10
-145.60078874870359
 20
397.88573470753983
 30
0.0
 40
5.7009440104166647
  1
コネクター
 41
0.7
 11
-145.60078874870359
 21
403.58667871795637
 31
0.0
 73
     3
  0
TEXT
  5
10E
  8
SPEC
 62
     7
 10
-47.080117117650907
 20
397.30456556003139
 30
0.0
 40
5.7009440104166647
  1
XLR3ピン
 41
0.7
 11
-47.080117117650907
 21
403.005509570448
 31
0.0
 73
     3
  0
TEXT
  5
10F
  8
SPEC
 62
     7
 10
-144.94484299544141
 20
352.5858973505197
 30
0.0
 40
6.482291666666665
  1
重量
 41
0.7
 11
-144.94484299544141
 21
359.06818901718628
 31
0.0
 73
     3
  0
TEXT
  5
110
  8
SPEC
 62
     7
 10
-47.387711417457339
 20
352.72266527840588
 30
0.0
 40
5.7009440104166647
  1
約36g(コネクター、コード含まず）
 41
0.7
 11
-47.387711417457339
 21
358.42360928882249
 31
0.0
 73
     3
  0
TEXT
  5
111
  8
SPEC
 62
     7
 10
-145.07073772563589
 20
364.25937674848979
 30
0.0
 40
6.482291666666665
  1
寸法
 41
0.7
 11
-145.07073772563589
 21
370.74166841515648
 31
0.0
 73
     3
  0
TEXT
  5
112
  8
SPEC
 62
     7
 10
-144.82516368312579
 20
341.79987823487238
 30
0.0
 40
6.482291666666665
  1
付属品
 41
0.7
 11
-144.82516368312579
 21
348.28216990153908
 31
0.0
 73
     3
  0
TEXT
  5
113
  8
SPEC
 62
     7
 10
-48.008497403635559
 20
341.42642429456862
 30
0.0
 40
5.7009440104166647
  1
ショックマウント(H47)/グースネック(MSH70)/スタンドアダプター(SA47）/クランプクリップ(SA80)/
 41
0.7
 11
-48.008497403635559
 21
347.12736830498528
 31
0.0
 73
     3
  0
TEXT
  5
114
  8
SPEC
 62
     7
 10
-48.109024378232611
 20
363.7092130064018
 30
0.0
 40
5.7009440104166647
  1
\U+03A69\U+00D7137mm
 41
0.7
 11
-48.109024378232611
 21
369.4101570168184
 31
0.0
 73
     3
  0
LINE
  5
115
  8
SPEC
  6
CONTINUOUS
 62
     7
 10
-147.49999999999989
 20
383.31362999999988
 30
0.0
 11
295.0
 21
383.31362999999988
 31
0.0
  0
TEXT
  5
116
  8
SPEC
 62
     7
 10
-47.129569827287057
 20
408.6109978752192
 30
0.0
 40
5.7009440104166647
  1
400\U+03A9以下
 41
0.7
 11
-47.129569827287057
 21
414.3119418856358
 31
0.0
 73
     3
  0
TEXT
  5
117
  8
SPEC
 62
     7
 10
-145.92471924365469
 20
431.31577476687738
 30
0.0
 40
5.7009440104166647
  1
ローカットフィルター
 41
0.7
 11
-145.92471924365469
 21
437.0167187772941
 31
0.0
 73
     3
  0
TEXT
  5
118
  8
SPEC
 62
     7
 10
-47.328249529347012
 20
431.11319089264998
 30
0.0
 40
5.7009440104166647
  1
Flat/150Hz(12dB/oct)
 41
0.7
 11
-47.328249529347012
 21
436.8141349030667
 31
0.0
 73
     3
  0
TEXT
  5
119
  8
SPEC
 62
     7
 10
-47.117383024711003
 20
420.17855107208572
 30
0.0
 40
5.7009440104166647
  1
*切り替えスイッチはプリアンプ部に装備
 41
0.7
 11
-47.117383024711003
 21
425.87949508250239
 31
0.0
 73
     3
  0
LINE
  5
11A
  8
SPEC
  6
CONTINUOUS
 62
     7
 10
-147.49999999999989
 20
372.06362999999988
 30
0.0
 11
295.0
 21
372.06362999999988
 31
0.0
  0
LINE
  5
11B
  8
SPEC
  6
CONTINUOUS
 62
     7
 10
-147.49999999999989
 20
360.81362999999988
 30
0.0
 11
295.0
 21
360.81362999999988
 31
0.0
  0
LINE
  5
11C
  8
SPEC
  6
CONTINUOUS
 62
     7
 10
-147.49999999999989
 20
349.56362999999988
 30
0.0
 11
295.0
 21
349.56362999999988
 31
0.0
  0
LINE
  5
11D
  8
SPEC
  6
CONTINUOUS
 62
     7
 10
-50.0
 20
338.31362999999988
 30
0.0
 11
295.0
 21
338.31362999999988
 31
0.0
  0
TEXT
  5
11E
  8
SPEC
 62
     7
 10
-145.10572352558239
 20
386.63573470753988
 30
0.0
 40
5.7009440104166647
  1
ケーブル長
 41
0.7
 11
-145.10572352558239
 21
392.3366787179566
 31
0.0
 73
     3
  0
TEXT
  5
11F
  8
SPEC
 62
     7
 10
-47.288536258859061
 20
386.01927816655052
 30
0.0
 40
5.7009440104166647
  1
3m(プリアンプ付）
 41
0.7
 11
-47.288536258859061
 21
391.72022217696718
 31
0.0
 73
     3
  0
TEXT
  5
120
  8
SPEC
 62
     7
 10
-144.99809847589501
 20
375.11178458353612
 30
0.0
 40
5.7009440104166647
  1
電源
 41
0.7
 11
-144.99809847589501
 21
380.81272859395273
 31
0.0
 73
     3
  0
TEXT
  5
121
  8
SPEC
 62
     7
 10
-48.221895664054259
 20
375.00399936362271
 30
0.0
 40
5.7009440104166647
  1
フアンタムDC9～52V(48V推奨)2mA以下
 41
0.7
 11
-48.221895664054259
 21
380.70494337403937
 31
0.0
 73
     3
  0
LINE
  5
122
  8
SPEC
  6
CONTINUOUS
 62
     7
 10
-147.49999999999989
 20
327.06362999999999
 30
0.0
 11
295.0
 21
327.06362999999999
 31
0.0
  0
TEXT
  5
123
  8
SPEC
 62
     7
 10
-48.724240725564698
 20
330.22754881756367
 30
0.0
 40
5.7009440104166647
  1
リンク金具(SHZ80)/ウインドスクリーン(W70)
 41
0.7
 11
-48.724240725564698
 21
335.92849282798039
 31
0.0
 73
     3
  0
TEXT
  5
124
  8
DIMNSIONS
 62
     7
 10
40.0
 20
-206.12790000000001
 30
0.0
 40
7.3297851562499989
  1
(単位：mm)
 41
0.7
 11
40.0
 21
-198.79811484375
 31
0.0
 73
     3
  0
LINE
  5
125
  8
DIMNSIONS
  6
CONTINUOUS
 62
     7
 10
25.0
 20
249.5
 30
0.0
 11
24.999999999999989
 21
125.5
 31
0.0
  0
ARC
  5
126
  8
DIMNSIONS
  6
CONTINUOUS
 62
     7
 10
38.0
 20
249.5
 30
0.0
 40
13.0
 50
90.0
 51
180.0
  0
LINE
  5
127
  8
DIMNSIONS
  6
CONTINUOUS
 62
     7
 10
137.5
 20
231.5
 30
0.0
 11
137.5
 21
206.5
 31
0.0
  0
LINE
  5
128
  8
DIMNSIONS
  6
CONTINUOUS
 62
     7
 10
274.5
 20
240.5
 30
0.0
 11
274.5
 21
206.5
 31
0.0
  0
LINE
  5
129
  8
DIMNSIONS
  6
CONTINUOUS
 62
     7
 10
137.5
 20
212.5
 30
0.0
 11
274.5
 21
212.5
 31
0.0
  0
LINE
  5
12A
  8
DIMNSIONS
  6
CONTINUOUS
 62
     7
 10
137.5
 20
212.5
 30
0.0
 11
145.0018676757812
 21
214.51011938545071
 31
0.0
  0
LINE
  5
12B
  8
DIMNSIONS
  6
CONTINUOUS
 62
     7
 10
137.5
 20
212.5
 30
0.0
 11
145.0018676757812
 21
210.48988061454929
 31
0.0
  0
LINE
  5
12C
  8
DIMNSIONS
  6
CONTINUOUS
 62
     7
 10
274.5
 20
212.5
 30
0.0
 11
266.99813232421872
 21
210.48988061454929
 31
0.0
  0
LINE
  5
12D
  8
DIMNSIONS
  6
CONTINUOUS
 62
     7
 10
274.5
 20
212.5
 30
0.0
 11
266.99813232421872
 21
214.51011938545071
 31
0.0
  0
TEXT
  5
12E
  8
DIMNSIONS
 62
     7
 10
198.0625
 20
215.4816666666666
 30
0.0
 40
8.1442057291666661
  1
137
 41
0.7
 11
198.0625
 21
223.62587239583331
 31
0.0
 73
     3
  0
LINE
  5
12F
  8
DIMNSIONS
  6
CONTINUOUS
 62
     7
 10
-46.520294942766142
 20
244.8533581469317
 30
0.0
 11
-24.999999999999989
 21
262.5
 31
0.0
  0
LINE
  5
130
  8
DIMNSIONS
  6
CONTINUOUS
 62
     7
 10
-46.520294942766142
 20
244.8533581469317
 30
0.0
 11
-41.955257892856856
 21
251.1365926087079
 31
0.0
  0
LINE
  5
131
  8
DIMNSIONS
  6
CONTINUOUS
 62
     7
 10
-46.520294942766142
 20
244.8533581469317
 30
0.0
 11
-39.425239657439427
 21
248.0122802838091
 31
0.0
  0
LINE
  5
132
  8
DIMNSIONS
  6
CONTINUOUS
 62
     7
 10
-24.999999999999989
 20
262.5
 30
0.0
 11
-3.1249999999999849
 21
262.5
 31
0.0
  0
TEXT
  5
133
  8
DIMNSIONS
 62
     7
 10
-18.999999999999979
 20
265.48166666666663
 30
0.0
 40
8.1442057291666661
  1
\U+03C69
 41
0.7
 11
-18.999999999999979
 21
273.62587239583331
 31
0.0
 73
     3
  0
LINE
  5
134
  8
DIMNSIONS
  6
CONTINUOUS
 62
     7
 10
162.5
 20
144.0
 30
0.0
 11
162.5
 21
119.0
 31
0.0
  0
LINE
  5
135
  8
DIMNSIONS
  6
CONTINUOUS
 62
     7
 10
272.5
 20
144.0
 30
0.0
 11
272.5
 21
119.0
 31
0.0
  0
LINE
  5
136
  8
DIMNSIONS
  6
CONTINUOUS
 62
     7
 10
162.5
 20
125.0
 30
0.0
 11
272.5
 21
125.0
 31
0.0
  0
LINE
  5
137
  8
DIMNSIONS
  6
CONTINUOUS
 62
     7
 10
162.5
 20
125.0
 30
0.0
 11
170.0018676757812
 21
127.01011938545069
 31
0.0
  0
LINE
  5
138
  8
DIMNSIONS
  6
CONTINUOUS
 62
     7
 10
162.5
 20
125.0
 30
0.0
 11
170.0018676757812
 21
122.98988061454919
 31
0.0
  0
LINE
  5
139
  8
DIMNSIONS
  6
CONTINUOUS
 62
     7
 10
272.5
 20
125.0
 30
0.0
 11
264.99813232421872
 21
122.98988061454919
 31
0.0
  0
LINE
  5
13A
  8
DIMNSIONS
  6
CONTINUOUS
 62
     7
 10
272.5
 20
125.0
 30
0.0
 11
264.99813232421872
 21
127.01011938545069
 31
0.0
  0
TEXT
  5
13B
  8
DIMNSIONS
 62
     7
 10
209.5625
 20
127.9816666666667
 30
0.0
 40
8.1442057291666661
  1
110
 41
0.7
 11
209.5625
 21
136.12587239583331
 31
0.0
 73
     3
  0
LINE
  5
13C
  8
DIMNSIONS
  6
CONTINUOUS
 62
     7
 10
162.5
 20
148.0
 30
0.0
 11
162.5
 21
119.0
 31
0.0
  0
LINE
  5
13D
  8
DIMNSIONS
  6
CONTINUOUS
 62
     7
 10
137.5
 20
252.5
 30
0.0
 11
137.5
 21
268.5
 31
0.0
  0
LINE
  5
13E
  8
DIMNSIONS
  6
CONTINUOUS
 62
     7
 10
137.5
 20
262.5
 30
0.0
 11
38.0
 21
262.5
 31
0.0
  0
LINE
  5
13F
  8
DIMNSIONS
  6
CONTINUOUS
 62
     7
 10
137.5
 20
262.5
 30
0.0
 11
129.99813232421869
 21
260.48988061454929
 31
0.0
  0
LINE
  5
140
  8
DIMNSIONS
  6
CONTINUOUS
 62
     7
 10
137.5
 20
262.5
 30
0.0
 11
129.99813232421869
 21
264.51011938545071
 31
0.0
  0
TEXT
  5
141
  8
DIMNSIONS
 62
     7
 10
81.320833333333326
 20
115.4816666666667
 30
0.0
 40
8.1442057291666661
  1
3000
 41
0.7
 11
81.320833333333326
 21
123.6258723958333
 31
0.0
 73
     3
  0
ARC
  5
142
  8
DIMNSIONS
  6
CONTINUOUS
 62
     7
 10
38.0
 20
125.5
 30
0.0
 40
13.0
 50
180.0
 51
270.0
  0
LINE
  5
143
  8
DIMNSIONS
  6
CONTINUOUS
 62
     7
 10
272.5
 20
135.5
 30
0.0
 11
272.5
 21
106.5
 31
0.0
  0
LINE
  5
144
  8
DIMNSIONS
  6
CONTINUOUS
 62
     7
 10
272.5
 20
112.5
 30
0.0
 11
37.999999999999993
 21
112.5
 31
0.0
  0
LINE
  5
145
  8
DIMNSIONS
  6
CONTINUOUS
 62
     7
 10
272.5
 20
112.5
 30
0.0
 11
264.99813232421872
 21
110.48988061454919
 31
0.0
  0
LINE
  5
146
  8
DIMNSIONS
  6
CONTINUOUS
 62
     7
 10
272.5
 20
112.5
 30
0.0
 11
264.99813232421872
 21
114.51011938545069
 31
0.0
  0
LINE
  5
147
  8
DIMNSIONS
  6
CONTINUOUS
 62
     7
 10
-45.622758797777202
 20
-182.9257819917662
 30
0.0
 11
-25.0
 21
-200.0
 31
0.0
  0
LINE
  5
148
  8
DIMNSIONS
  6
CONTINUOUS
 62
     7
 10
-45.622758797777202
 20
-182.9257819917662
 30
0.0
 11
-38.527703512450501
 21
-186.08470412864361
 31
0.0
  0
LINE
  5
149
  8
DIMNSIONS
  6
CONTINUOUS
 62
     7
 10
-45.622758797777202
 20
-182.9257819917662
 30
0.0
 11
-41.057721747867923
 21
-189.2090164535424
 31
0.0
  0
LINE
  5
14A
  8
DIMNSIONS
  6
CONTINUOUS
 62
     7
 10
-25.0
 20
-200.0
 30
0.0
 11
2.166666666666671
 21
-200.0
 31
0.0
  0
TEXT
  5
14B
  8
DIMNSIONS
 62
     7
 10
-19.0
 20
-197.01833333333329
 30
0.0
 40
8.1442057291666661
  1
\U+03C612
 41
0.7
 11
-19.0
 21
-188.87412760416669
 31
0.0
 73
     3
  0
LINE
  5
14C
  8
DIMNSIONS
  6
CONTINUOUS
 62
     7
 10
-52.649101894769899
 20
251.64273089696249
 30
0.0
 11
-62.500000000000021
 21
287.5
 31
0.0
  0
LINE
  5
14D
  8
DIMNSIONS
  6
CONTINUOUS
 62
     7
 10
-52.649101894769899
 20
251.64273089696249
 30
0.0
 11
-56.532354351432247
 21
258.36872145051831
 31
0.0
  0
LINE
  5
14E
  8
DIMNSIONS
  6
CONTINUOUS
 62
     7
 10
-52.649101894769899
 20
251.64273089696249
 30
0.0
 11
-52.649101894769899
 21
259.40923581028721
 31
0.0
  0
LINE
  5
14F
  8
DIMNSIONS
  6
CONTINUOUS
 62
     7
 10
-62.500000000000021
 20
287.5
 30
0.0
 11
-35.333333333333357
 21
287.5
 31
0.0
  0
TEXT
  5
150
  8
DIMNSIONS
 62
     7
 10
-56.500000000000021
 20
290.48166666666663
 30
0.0
 40
8.1442057291666661
  1
\U+03C620
 41
0.7
 11
-56.500000000000021
 21
298.62587239583331
 31
0.0
 73
     3
  0
TEXT
  5
151
  8
DATA
 62
     7
 10
250.0
 20
-209.6315406402438
 30
0.0
 40
7.3297851562499989
  1
C 747V11
 41
0.7
 11
250.0
 21
-202.30175548399379
 31
0.0
 73
     3
  0
TEXT
  5
152
  8
DATA
 62
     7
 10
250.0
 20
-187.17908449714849
 30
0.0
 40
7.3297851562499989
  1
AKG
 41
0.7
 11
250.0
 21
-179.84929934089851
 31
0.0
 73
     3
  0
TEXT
  5
153
  8
DATA
 62
     7
 10
-139.99999999999989
 20
-230.22237000000001
 30
0.0
 40
4.8865234374999993
  1
仕様および外観は予告なく変更されることがありますので、ご了承ください。
 41
0.7
 11
-139.99999999999989
 21
-225.3358465625
 31
0.0
 73
     3
  0
TEXT
  5
154
  8
DATA
 62
     7
 10
245.07561916224651
 20
-197.86201341839609
 30
0.0
 40
4.8865234374999993
  1
高品位小型コンデンサー・マイクロホン
 41
0.7
 11
245.07561916224651
 21
-192.9754899808961
 31
0.0
 73
     3
  0
LINE
  5
155
  8
DATA
  6
CONTINUOUS
 62
     7
 10
12.850554642262679
 20
-162.50000000364659
 30
0.0
 11
24.850554642262669
 21
-162.50000000364659
 31
0.0
  0
LINE
  5
156
  8
DATA
  6
CONTINUOUS
 62
     7
 10
12.850554642262679
 20
-162.50000000364659
 30
0.0
 11
12.850554642262679
 21
-146.4607805473581
 31
0.0
  0
LINE
  5
157
  8
DATA
  6
CONTINUOUS
 62
     7
 10
24.850554642262669
 20
-162.50000000364659
 30
0.0
 11
24.850554642262669
 21
-146.4607805473581
 31
0.0
  0
LINE
  5
158
  8
DATA
  6
CONTINUOUS
 62
     7
 10
14.65055464226262
 20
-133.5000000036467
 30
0.0
 11
23.050554642262711
 21
-133.5000000036467
 31
0.0
  0
LINE
  5
159
  8
DATA
  6
CONTINUOUS
 62
     7
 10
12.850554642262679
 20
-162.50000000364659
 30
0.0
 11
24.850554642262669
 21
-162.50000000364659
 31
0.0
  0
LINE
  5
15A
  8
DATA
  6
CONTINUOUS
 62
     7
 10
16.100554642262662
 20
-133.5000000036467
 30
0.0
 11
16.100554642262662
 21
-112.6349652880771
 31
0.0
  0
LINE
  5
15B
  8
DATA
  6
CONTINUOUS
 62
     7
 10
16.100554642262662
 20
-107.6349652880771
 30
0.0
 11
16.100554642262662
 21
-97.815544594629813
 31
0.0
  0
LINE
  5
15C
  8
DATA
  6
CONTINUOUS
 62
     7
 10
22.100554642262662
 20
-133.5000000036467
 30
0.0
 11
16.100554642262662
 21
-133.5000000036467
 31
0.0
  0
LINE
  5
15D
  8
DATA
  6
CONTINUOUS
 62
     7
 10
22.100554642262662
 20
-97.500000003646505
 30
0.0
 11
22.100554642262662
 21
-107.6349652880771
 31
0.0
  0
LINE
  5
15E
  8
DATA
  6
CONTINUOUS
 62
     7
 10
22.100554642262662
 20
-112.6349652880771
 30
0.0
 11
22.100554642262662
 21
-133.5000000036467
 31
0.0
  0
LINE
  5
15F
  8
DATA
  6
CONTINUOUS
 62
     7
 10
14.65055464226262
 20
-133.5000000036467
 30
0.0
 11
13.62732761462591
 21
-138.6161351418308
 31
0.0
  0
LINE
  5
160
  8
DATA
  6
CONTINUOUS
 62
     7
 10
23.050554642262711
 20
-133.5000000036467
 30
0.0
 11
24.073781669899429
 21
-138.6161351418308
 31
0.0
  0
ARC
  5
161
  8
DATA
  6
CONTINUOUS
 62
     7
 10
52.850554642262658
 20
-146.4607805473581
 30
0.0
 40
39.99999999999995
 50
168.69006752597971
 51
179.99999999999989
  0
ARC
  5
162
  8
DATA
  6
CONTINUOUS
 62
     7
 10
-15.149445357737321
 20
-146.46078054735821
 30
0.0
 40
40.0
 50
0.0000000000001137
 51
11.309932474020281
  0
ARC
  5
163
  8
DATA
  6
CONTINUOUS
 62
     7
 10
61.488296978474892
 20
-99.657772299137534
 30
0.0
 40
45.425113729011692
 50
119.8803619633388
 51
177.6757168184877
  0
ARC
  5
164
  8
DATA
  6
CONTINUOUS
 62
     7
 10
61.641067253178598
 20
-100.31055080131161
 30
0.0
 40
39.64027413275867
 50
119.5823681600818
 51
175.93423791229139
  0
LINE
  5
165
  8
DATA
  6
CONTINUOUS
 62
     7
 10
137.5
 20
237.5
 30
0.0
 11
265.5
 21
237.5
 31
0.0
  0
LINE
  5
166
  8
DATA
  6
CONTINUOUS
 62
     7
 10
137.5
 20
246.5
 30
0.0
 11
274.5
 21
246.5
 31
0.0
  0
LINE
  5
167
  8
DATA
  6
CONTINUOUS
 62
     7
 10
137.5
 20
237.5
 30
0.0
 11
137.5
 21
246.5
 31
0.0
  0
LINE
  5
168
  8
DATA
  6
CONTINUOUS
 62
     7
 10
265.5
 20
237.5
 30
0.0
 11
274.5
 21
246.5
 31
0.0
  0
LINE
  5
169
  8
DATA
  6
CONTINUOUS
 62
     7
 10
138.5
 20
237.5
 30
0.0
 11
138.5
 21
246.5
 31
0.0
  0
LINE
  5
16A
  8
DATA
  6
CONTINUOUS
 62
     7
 10
154.5
 20
237.5
 30
0.0
 11
154.5
 21
246.5
 31
0.0
  0
LINE
  5
16B
  8
DATA
  6
CONTINUOUS
 62
     7
 10
161.5
 20
237.5
 30
0.0
 11
161.5
 21
246.5
 31
0.0
  0
TEXT
  5
16C
  8
DATA
 62
     7
 10
165.1600458663234
 20
240.17741341390041
 30
0.0
 40
3.9092187499999991
  1
AKG
 41
0.7
 11
165.1600458663234
 21
244.08663216390039
 31
0.0
 73
     3
  0
TEXT
  5
16D
  8
DATA
 62
     7
 10
174.83773216303109
 20
240.40784793258359
 30
0.0
 40
3.1273749999999989
  1
C747
 41
0.7
 11
174.83773216303109
 21
243.53522293258359
 31
0.0
 73
     3
  0
LINE
  5
16E
  8
DATA
  6
CONTINUOUS
 62
     7
 10
264.5
 20
237.5
 30
0.0
 11
273.5
 21
246.5
 31
0.0
  0
CIRCLE
  5
16F
  8
DATA
  6
CONTINUOUS
 62
     7
 10
-50.000000000000021
 20
242.0
 30
0.0
 40
4.5
  0
ARC
  5
170
  8
DATA
  6
CONTINUOUS
 62
     7
 10
-51.283368823753179
 20
244.1280170354016
 30
0.0
 40
0.75
 50
0.0
 51
180.0
  0
LINE
  5
171
  8
DATA
  6
CONTINUOUS
 62
     7
 10
-52.033368823753172
 20
239.8719829645984
 30
0.0
 11
-52.033368823753172
 21
244.1280170354016
 31
0.0
  0
LINE
  5
172
  8
DATA
  6
CONTINUOUS
 62
     7
 10
-50.533368823753179
 20
244.1280170354016
 30
0.0
 11
-50.533368823753179
 21
239.8719829645984
 31
0.0
  0
ARC
  5
173
  8
DATA
  6
CONTINUOUS
 62
     7
 10
-51.283368823753179
 20
239.8719829645984
 30
0.0
 40
0.75
 50
180.0
 51
0.0
  0
ARC
  5
174
  8
DATA
  6
CONTINUOUS
 62
     7
 10
-48.716631176246842
 20
244.1280170354016
 30
0.0
 40
0.75
 50
0.0
 51
180.0
  0
LINE
  5
175
  8
DATA
  6
CONTINUOUS
 62
     7
 10
-47.966631176246842
 20
239.8719829645984
 30
0.0
 11
-47.966631176246842
 21
244.1280170354016
 31
0.0
  0
LINE
  5
176
  8
DATA
  6
CONTINUOUS
 62
     7
 10
-49.46663117624685
 20
244.1280170354016
 30
0.0
 11
-49.46663117624685
 21
239.8719829645984
 31
0.0
  0
ARC
  5
177
  8
DATA
  6
CONTINUOUS
 62
     7
 10
-48.716631176246842
 20
239.8719829645984
 30
0.0
 40
0.75
 50
180.0
 51
0.0
  0
CIRCLE
  5
178
  8
DATA
  6
STYLE_05
 62
     7
 10
-50.000000000000021
 20
242.0
 30
0.0
 40
10.0
  0
CIRCLE
  5
179
  8
DATA
  6
CONTINUOUS
 62
     7
 10
155.5639402577095
 20
245.68132765545951
 30
0.0
 40
0.4899999999999949
  0
LINE
  5
17A
  8
DATA
  6
CONTINUOUS
 62
     7
 10
156.5
 20
237.5
 30
0.0
 11
156.5
 21
246.5
 31
0.0
  0
LINE
  5
17B
  8
DATA
  6
CONTINUOUS
 62
     7
 10
161.75
 20
237.5
 30
0.0
 11
161.75
 21
246.5
 31
0.0
  0
CIRCLE
  5
17C
  8
DATA
  6
CONTINUOUS
 62
     7
 10
155.5639402577095
 20
244.18132765545951
 30
0.0
 40
0.4899999999999949
  0
CIRCLE
  5
17D
  8
DATA
  6
CONTINUOUS
 62
     7
 10
155.5639402577095
 20
242.68132765545951
 30
0.0
 40
0.4899999999999949
  0
CIRCLE
  5
17E
  8
DATA
  6
CONTINUOUS
 62
     7
 10
155.5639402577095
 20
241.18132765545951
 30
0.0
 40
0.4899999999999949
  0
CIRCLE
  5
17F
  8
DATA
  6
CONTINUOUS
 62
     7
 10
155.5639402577095
 20
239.68132765545951
 30
0.0
 40
0.4899999999999949
  0
CIRCLE
  5
180
  8
DATA
  6
CONTINUOUS
 62
     7
 10
155.5639402577095
 20
238.18132765545951
 30
0.0
 40
0.4899999999999949
  0
ARC
  5
181
  8
DATA
  6
CONTINUOUS
 62
     7
 10
168.98453590696991
 20
246.20195527234901
 30
0.0
 40
0.210000000000008
 50
270.0
 51
90.0
  0
ARC
  5
182
  8
DATA
  6
CONTINUOUS
 62
     7
 10
164.83874996310649
 20
246.20195527234901
 30
0.0
 40
0.210000000000008
 50
90.0
 51
270.0
  0
LINE
  5
183
  8
DATA
  6
CONTINUOUS
 62
     7
 10
168.98453590696991
 20
246.41195527234899
 30
0.0
 11
164.83874996310649
 21
246.41195527234899
 31
0.0
  0
LINE
  5
184
  8
DATA
  6
CONTINUOUS
 62
     7
 10
164.83874996310649
 20
245.991955272349
 30
0.0
 11
168.98716103157579
 21
245.991955272349
 31
0.0
  0
LINE
  5
185
  8
DATA
  6
CONTINUOUS
 62
     7
 10
137.5
 20
275.0
 30
0.0
 11
267.6700000000007
 21
275.0
 31
0.0
  0
LINE
  5
186
  8
DATA
  6
CONTINUOUS
 62
     7
 10
137.5
 20
284.0
 30
0.0
 11
267.6700000000007
 21
284.0
 31
0.0
  0
LINE
  5
187
  8
DATA
  6
CONTINUOUS
 62
     7
 10
137.5
 20
275.0
 30
0.0
 11
137.5
 21
284.0
 31
0.0
  0
LINE
  5
188
  8
DATA
  6
CONTINUOUS
 62
     7
 10
138.5
 20
275.0
 30
0.0
 11
138.5
 21
284.0
 31
0.0
  0
LINE
  5
189
  8
DATA
  6
CONTINUOUS
 62
     7
 10
154.5
 20
275.0
 30
0.0
 11
154.5
 21
284.0
 31
0.0
  0
LINE
  5
18A
  8
DATA
  6
CONTINUOUS
 62
     7
 10
161.5
 20
275.0
 30
0.0
 11
161.5
 21
284.0
 31
0.0
  0
CIRCLE
  5
18B
  8
DATA
  6
CONTINUOUS
 62
     7
 10
155.5639402577095
 20
283.1813276554596
 30
0.0
 40
0.4899999999999949
  0
LINE
  5
18C
  8
DATA
  6
CONTINUOUS
 62
     7
 10
156.5
 20
275.0
 30
0.0
 11
156.5
 21
284.0
 31
0.0
  0
LINE
  5
18D
  8
DATA
  6
CONTINUOUS
 62
     7
 10
161.75
 20
275.0
 30
0.0
 11
161.75
 21
284.0
 31
0.0
  0
CIRCLE
  5
18E
  8
DATA
  6
CONTINUOUS
 62
     7
 10
155.5639402577095
 20
281.68132765545948
 30
0.0
 40
0.4899999999999949
  0
CIRCLE
  5
18F
  8
DATA
  6
CONTINUOUS
 62
     7
 10
155.5639402577095
 20
280.18132765545948
 30
0.0
 40
0.4899999999999949
  0
CIRCLE
  5
190
  8
DATA
  6
CONTINUOUS
 62
     7
 10
155.5639402577095
 20
278.68132765545948
 30
0.0
 40
0.4899999999999949
  0
CIRCLE
  5
191
  8
DATA
  6
CONTINUOUS
 62
     7
 10
155.5639402577095
 20
277.18132765545948
 30
0.0
 40
0.4899999999999949
  0
CIRCLE
  5
192
  8
DATA
  6
CONTINUOUS
 62
     7
 10
155.5639402577095
 20
275.68132765545948
 30
0.0
 40
0.4899999999999949
  0
ARC
  5
193
  8
DATA
  6
CONTINUOUS
 62
     7
 10
266.96649023207272
 20
275.25323642890783
 30
0.0
 40
8.9368691966297469
 50
36.188861912962608
 51
71.852541898300956
  0
ARC
  5
194
  8
DATA
  6
CONTINUOUS
 62
     7
 10
266.00211993177538
 20
261.73562330410221
 30
0.0
 40
22.326761824743329
 50
80.336295918279646
 51
85.715832172412007
  0
ARC
  5
195
  8
DATA
  6
CONTINUOUS
 62
     7
 10
266.96649023207272
 20
283.74676357109217
 30
0.0
 40
8.9368691966297664
 50
288.14745810169899
 51
323.73091168302471
  0
ARC
  5
196
  8
DATA
  6
CONTINUOUS
 62
     7
 10
266.00211993177538
 20
297.26437669589768
 30
0.0
 40
22.326761824743329
 50
274.28416782758802
 51
279.66370408172043
  0
ARC
  5
197
  8
DATA
  6
CONTINUOUS
 62
     7
 10
272.68687911897769
 20
279.5002712516291
 30
0.0
 40
1.81312090131259
 50
321.83931383692232
 51
38.577083257568347
  0
ARC
  5
198
  8
DATA
  6
CONTINUOUS
 62
     7
 10
165.46104602277441
 20
281.21151611000772
 30
0.0
 40
0.9499999999999886
 50
90.000000000000867
 51
272.77818617196351
  0
ARC
  5
199
  8
DATA
  6
CONTINUOUS
 62
     7
 10
168.31283503080891
 20
281.21151611000772
 30
0.0
 40
0.9500000000000136
 50
267.22181382800647
 51
90.000000000000867
  0
LINE
  5
19A
  8
DATA
  6
CONTINUOUS
 62
     7
 10
165.46104602277441
 20
282.1615161100076
 30
0.0
 11
168.31283503080891
 21
282.16151611000771
 31
0.0
  0
LINE
  5
19B
  8
DATA
  6
CONTINUOUS
 62
     7
 10
165.41499999999999
 20
280.2626326799778
 30
0.0
 11
168.35888105359959
 21
280.2626326799778
 31
0.0
  0
ARC
  5
19C
  8
DATA
  6
CONTINUOUS
 62
     7
 10
173.46104602277441
 20
281.21151611000772
 30
0.0
 40
0.9499999999999886
 50
90.000000000000867
 51
272.77818617196351
  0
ARC
  5
19D
  8
DATA
  6
CONTINUOUS
 62
     7
 10
176.31283503080891
 20
281.21151611000772
 30
0.0
 40
0.9500000000000143
 50
267.22181382800562
 51
90.000000000000824
  0
LINE
  5
19E
  8
DATA
  6
CONTINUOUS
 62
     7
 10
173.46104602277441
 20
282.1615161100076
 30
0.0
 11
176.31283503080891
 21
282.16151611000771
 31
0.0
  0
LINE
  5
19F
  8
DATA
  6
CONTINUOUS
 62
     7
 10
173.41499999999999
 20
280.2626326799778
 30
0.0
 11
176.35888105359959
 21
280.2626326799778
 31
0.0
  0
ARC
  5
1A0
  8
DATA
  6
CONTINUOUS
 62
     7
 10
181.46104602277441
 20
281.21151611000772
 30
0.0
 40
0.9499999999999886
 50
90.000000000000867
 51
272.77818617196351
  0
ARC
  5
1A1
  8
DATA
  6
CONTINUOUS
 62
     7
 10
184.31283503080891
 20
281.21151611000772
 30
0.0
 40
0.9500000000000143
 50
267.22181382800562
 51
90.000000000000824
  0
LINE
  5
1A2
  8
DATA
  6
CONTINUOUS
 62
     7
 10
181.46104602277441
 20
282.1615161100076
 30
0.0
 11
184.31283503080891
 21
282.16151611000771
 31
0.0
  0
LINE
  5
1A3
  8
DATA
  6
CONTINUOUS
 62
     7
 10
181.41499999999999
 20
280.2626326799778
 30
0.0
 11
184.35888105359959
 21
280.2626326799778
 31
0.0
  0
ARC
  5
1A4
  8
DATA
  6
CONTINUOUS
 62
     7
 10
189.46104602277441
 20
281.21151611000772
 30
0.0
 40
0.9499999999999886
 50
90.000000000000867
 51
272.77818617196351
  0
ARC
  5
1A5
  8
DATA
  6
CONTINUOUS
 62
     7
 10
192.31283503080891
 20
281.21151611000772
 30
0.0
 40
0.9500000000000143
 50
267.22181382800562
 51
90.000000000000824
  0
LINE
  5
1A6
  8
DATA
  6
CONTINUOUS
 62
     7
 10
189.46104602277441
 20
282.1615161100076
 30
0.0
 11
192.31283503080891
 21
282.16151611000771
 31
0.0
  0
LINE
  5
1A7
  8
DATA
  6
CONTINUOUS
 62
     7
 10
189.41499999999999
 20
280.2626326799778
 30
0.0
 11
192.35888105359959
 21
280.2626326799778
 31
0.0
  0
ARC
  5
1A8
  8
DATA
  6
CONTINUOUS
 62
     7
 10
197.4610460227745
 20
281.21151611000772
 30
0.0
 40
0.9499999999999886
 50
90.000000000000867
 51
272.77818617196351
  0
ARC
  5
1A9
  8
DATA
  6
CONTINUOUS
 62
     7
 10
200.31283503080891
 20
281.21151611000772
 30
0.0
 40
0.9500000000000136
 50
267.22181382800647
 51
90.000000000000867
  0
LINE
  5
1AA
  8
DATA
  6
CONTINUOUS
 62
     7
 10
197.4610460227745
 20
282.1615161100076
 30
0.0
 11
200.31283503080891
 21
282.16151611000771
 31
0.0
  0
LINE
  5
1AB
  8
DATA
  6
CONTINUOUS
 62
     7
 10
197.41499999999999
 20
280.2626326799778
 30
0.0
 11
200.35888105359959
 21
280.2626326799778
 31
0.0
  0
ARC
  5
1AC
  8
DATA
  6
CONTINUOUS
 62
     7
 10
205.4610460227745
 20
281.21151611000772
 30
0.0
 40
0.9499999999999886
 50
90.000000000000867
 51
272.77818617196351
  0
ARC
  5
1AD
  8
DATA
  6
CONTINUOUS
 62
     7
 10
208.31283503080891
 20
281.21151611000772
 30
0.0
 40
0.9500000000000136
 50
267.22181382800647
 51
90.000000000000867
  0
LINE
  5
1AE
  8
DATA
  6
CONTINUOUS
 62
     7
 10
205.4610460227745
 20
282.1615161100076
 30
0.0
 11
208.31283503080891
 21
282.16151611000771
 31
0.0
  0
LINE
  5
1AF
  8
DATA
  6
CONTINUOUS
 62
     7
 10
205.41499999999999
 20
280.2626326799778
 30
0.0
 11
208.35888105359959
 21
280.2626326799778
 31
0.0
  0
ARC
  5
1B0
  8
DATA
  6
CONTINUOUS
 62
     7
 10
213.4610460227745
 20
281.21151611000772
 30
0.0
 40
0.9499999999999886
 50
90.000000000000867
 51
272.77818617196351
  0
ARC
  5
1B1
  8
DATA
  6
CONTINUOUS
 62
     7
 10
216.31283503080891
 20
281.21151611000772
 30
0.0
 40
0.9500000000000136
 50
267.22181382800647
 51
90.000000000000867
  0
LINE
  5
1B2
  8
DATA
  6
CONTINUOUS
 62
     7
 10
213.4610460227745
 20
282.1615161100076
 30
0.0
 11
216.31283503080891
 21
282.16151611000771
 31
0.0
  0
LINE
  5
1B3
  8
DATA
  6
CONTINUOUS
 62
     7
 10
213.41499999999999
 20
280.2626326799778
 30
0.0
 11
216.35888105359959
 21
280.2626326799778
 31
0.0
  0
ARC
  5
1B4
  8
DATA
  6
CONTINUOUS
 62
     7
 10
221.4610460227745
 20
281.21151611000772
 30
0.0
 40
0.9499999999999886
 50
90.000000000000867
 51
272.77818617196351
  0
ARC
  5
1B5
  8
DATA
  6
CONTINUOUS
 62
     7
 10
224.31283503080891
 20
281.21151611000772
 30
0.0
 40
0.9500000000000136
 50
267.22181382800647
 51
90.000000000000867
  0
LINE
  5
1B6
  8
DATA
  6
CONTINUOUS
 62
     7
 10
221.4610460227745
 20
282.1615161100076
 30
0.0
 11
224.31283503080891
 21
282.16151611000771
 31
0.0
  0
LINE
  5
1B7
  8
DATA
  6
CONTINUOUS
 62
     7
 10
221.41499999999999
 20
280.2626326799778
 30
0.0
 11
224.35888105359959
 21
280.2626326799778
 31
0.0
  0
ARC
  5
1B8
  8
DATA
  6
CONTINUOUS
 62
     7
 10
229.4610460227745
 20
281.21151611000772
 30
0.0
 40
0.9499999999999886
 50
90.00000000000172
 51
272.77818617196169
  0
ARC
  5
1B9
  8
DATA
  6
CONTINUOUS
 62
     7
 10
232.312835030809
 20
281.21151611000772
 30
0.0
 40
0.9500000000000156
 50
267.22181382800392
 51
90.00000000000172
  0
LINE
  5
1BA
  8
DATA
  6
CONTINUOUS
 62
     7
 10
229.4610460227745
 20
282.1615161100076
 30
0.0
 11
232.312835030809
 21
282.16151611000771
 31
0.0
  0
LINE
  5
1BB
  8
DATA
  6
CONTINUOUS
 62
     7
 10
229.41499999999999
 20
280.2626326799778
 30
0.0
 11
232.35888105359959
 21
280.2626326799778
 31
0.0
  0
ARC
  5
1BC
  8
DATA
  6
CONTINUOUS
 62
     7
 10
237.4610460227745
 20
281.21151611000772
 30
0.0
 40
0.9499999999999886
 50
90.00000000000172
 51
272.77818617196169
  0
ARC
  5
1BD
  8
DATA
  6
CONTINUOUS
 62
     7
 10
240.312835030809
 20
281.21151611000772
 30
0.0
 40
0.9500000000000156
 50
267.22181382800392
 51
90.00000000000172
  0
LINE
  5
1BE
  8
DATA
  6
CONTINUOUS
 62
     7
 10
237.4610460227745
 20
282.1615161100076
 30
0.0
 11
240.312835030809
 21
282.16151611000771
 31
0.0
  0
LINE
  5
1BF
  8
DATA
  6
CONTINUOUS
 62
     7
 10
237.41499999999999
 20
280.2626326799778
 30
0.0
 11
240.35888105359959
 21
280.2626326799778
 31
0.0
  0
ARC
  5
1C0
  8
DATA
  6
CONTINUOUS
 62
     7
 10
245.4610460227745
 20
281.21151611000772
 30
0.0
 40
0.9499999999999886
 50
90.00000000000172
 51
272.77818617196169
  0
ARC
  5
1C1
  8
DATA
  6
CONTINUOUS
 62
     7
 10
248.312835030809
 20
281.21151611000772
 30
0.0
 40
0.9500000000000156
 50
267.22181382800392
 51
90.00000000000172
  0
LINE
  5
1C2
  8
DATA
  6
CONTINUOUS
 62
     7
 10
245.4610460227745
 20
282.1615161100076
 30
0.0
 11
248.312835030809
 21
282.16151611000771
 31
0.0
  0
LINE
  5
1C3
  8
DATA
  6
CONTINUOUS
 62
     7
 10
245.41499999999999
 20
280.2626326799778
 30
0.0
 11
248.35888105359959
 21
280.2626326799778
 31
0.0
  0
ARC
  5
1C4
  8
DATA
  6
CONTINUOUS
 62
     7
 10
253.4610460227745
 20
281.21151611000772
 30
0.0
 40
0.9499999999999886
 50
90.00000000000172
 51
272.77818617196169
  0
ARC
  5
1C5
  8
DATA
  6
CONTINUOUS
 62
     7
 10
256.31283503080903
 20
281.21151611000772
 30
0.0
 40
0.9500000000000156
 50
267.22181382800392
 51
90.00000000000172
  0
LINE
  5
1C6
  8
DATA
  6
CONTINUOUS
 62
     7
 10
253.4610460227745
 20
282.1615161100076
 30
0.0
 11
256.31283503080903
 21
282.16151611000771
 31
0.0
  0
LINE
  5
1C7
  8
DATA
  6
CONTINUOUS
 62
     7
 10
253.41499999999999
 20
280.2626326799778
 30
0.0
 11
256.35888105359959
 21
280.2626326799778
 31
0.0
  0
ARC
  5
1C8
  8
DATA
  6
CONTINUOUS
 62
     7
 10
261.4610460227745
 20
281.21151611000772
 30
0.0
 40
0.9499999999999886
 50
90.00000000000172
 51
272.77818617196169
  0
ARC
  5
1C9
  8
DATA
  6
CONTINUOUS
 62
     7
 10
264.31283503080903
 20
281.21151611000772
 30
0.0
 40
0.9500000000000156
 50
267.22181382800392
 51
90.00000000000172
  0
LINE
  5
1CA
  8
DATA
  6
CONTINUOUS
 62
     7
 10
261.4610460227745
 20
282.1615161100076
 30
0.0
 11
264.31283503080903
 21
282.16151611000771
 31
0.0
  0
LINE
  5
1CB
  8
DATA
  6
CONTINUOUS
 62
     7
 10
261.41500000000002
 20
280.2626326799778
 30
0.0
 11
264.35888105359959
 21
280.2626326799778
 31
0.0
  0
ARC
  5
1CC
  8
DATA
  6
CONTINUOUS
 62
     7
 10
165.46104602277441
 20
277.78848388999228
 30
0.0
 40
0.9499999999999896
 50
87.221813828036474
 51
269.9999999999992
  0
ARC
  5
1CD
  8
DATA
  6
CONTINUOUS
 62
     7
 10
168.31283503080891
 20
277.78848388999228
 30
0.0
 40
0.9500000000000172
 50
269.9999999999992
 51
92.778186171993497
  0
LINE
  5
1CE
  8
DATA
  6
CONTINUOUS
 62
     7
 10
165.46104602277441
 20
276.83848388999229
 30
0.0
 11
168.31283503080891
 21
276.83848388999229
 31
0.0
  0
LINE
  5
1CF
  8
DATA
  6
CONTINUOUS
 62
     7
 10
165.41499999999999
 20
278.73736732002209
 30
0.0
 11
168.35888105359959
 21
278.73736732002209
 31
0.0
  0
ARC
  5
1D0
  8
DATA
  6
CONTINUOUS
 62
     7
 10
173.46104602277441
 20
277.78848388999228
 30
0.0
 40
0.9499999999999896
 50
87.221813828036474
 51
269.9999999999992
  0
ARC
  5
1D1
  8
DATA
  6
CONTINUOUS
 62
     7
 10
176.31283503080891
 20
277.78848388999228
 30
0.0
 40
0.9500000000000172
 50
269.9999999999992
 51
92.778186171994378
  0
LINE
  5
1D2
  8
DATA
  6
CONTINUOUS
 62
     7
 10
173.46104602277441
 20
276.83848388999229
 30
0.0
 11
176.31283503080891
 21
276.83848388999229
 31
0.0
  0
LINE
  5
1D3
  8
DATA
  6
CONTINUOUS
 62
     7
 10
173.41499999999999
 20
278.73736732002209
 30
0.0
 11
176.35888105359959
 21
278.73736732002209
 31
0.0
  0
ARC
  5
1D4
  8
DATA
  6
CONTINUOUS
 62
     7
 10
181.46104602277441
 20
277.78848388999228
 30
0.0
 40
0.9499999999999896
 50
87.221813828036474
 51
269.9999999999992
  0
ARC
  5
1D5
  8
DATA
  6
CONTINUOUS
 62
     7
 10
184.31283503080891
 20
277.78848388999228
 30
0.0
 40
0.9500000000000172
 50
269.9999999999992
 51
92.778186171994378
  0
LINE
  5
1D6
  8
DATA
  6
CONTINUOUS
 62
     7
 10
181.46104602277441
 20
276.83848388999229
 30
0.0
 11
184.31283503080891
 21
276.83848388999229
 31
0.0
  0
LINE
  5
1D7
  8
DATA
  6
CONTINUOUS
 62
     7
 10
181.41499999999999
 20
278.73736732002209
 30
0.0
 11
184.35888105359959
 21
278.73736732002209
 31
0.0
  0
ARC
  5
1D8
  8
DATA
  6
CONTINUOUS
 62
     7
 10
189.46104602277441
 20
277.78848388999228
 30
0.0
 40
0.9499999999999896
 50
87.221813828036474
 51
269.9999999999992
  0
ARC
  5
1D9
  8
DATA
  6
CONTINUOUS
 62
     7
 10
192.31283503080891
 20
277.78848388999228
 30
0.0
 40
0.9500000000000172
 50
269.9999999999992
 51
92.778186171994378
  0
LINE
  5
1DA
  8
DATA
  6
CONTINUOUS
 62
     7
 10
189.46104602277441
 20
276.83848388999229
 30
0.0
 11
192.31283503080891
 21
276.83848388999229
 31
0.0
  0
LINE
  5
1DB
  8
DATA
  6
CONTINUOUS
 62
     7
 10
189.41499999999999
 20
278.73736732002209
 30
0.0
 11
192.35888105359959
 21
278.73736732002209
 31
0.0
  0
ARC
  5
1DC
  8
DATA
  6
CONTINUOUS
 62
     7
 10
197.4610460227745
 20
277.78848388999228
 30
0.0
 40
0.9499999999999896
 50
87.221813828036474
 51
269.9999999999992
  0
ARC
  5
1DD
  8
DATA
  6
CONTINUOUS
 62
     7
 10
200.31283503080891
 20
277.78848388999228
 30
0.0
 40
0.9500000000000172
 50
269.9999999999992
 51
92.778186171993497
  0
LINE
  5
1DE
  8
DATA
  6
CONTINUOUS
 62
     7
 10
197.4610460227745
 20
276.83848388999229
 30
0.0
 11
200.31283503080891
 21
276.83848388999229
 31
0.0
  0
LINE
  5
1DF
  8
DATA
  6
CONTINUOUS
 62
     7
 10
197.41499999999999
 20
278.73736732002209
 30
0.0
 11
200.35888105359959
 21
278.73736732002209
 31
0.0
  0
ARC
  5
1E0
  8
DATA
  6
CONTINUOUS
 62
     7
 10
205.4610460227745
 20
277.78848388999228
 30
0.0
 40
0.9499999999999896
 50
87.221813828036474
 51
269.9999999999992
  0
ARC
  5
1E1
  8
DATA
  6
CONTINUOUS
 62
     7
 10
208.31283503080891
 20
277.78848388999228
 30
0.0
 40
0.9500000000000172
 50
269.9999999999992
 51
92.778186171993497
  0
LINE
  5
1E2
  8
DATA
  6
CONTINUOUS
 62
     7
 10
205.4610460227745
 20
276.83848388999229
 30
0.0
 11
208.31283503080891
 21
276.83848388999229
 31
0.0
  0
LINE
  5
1E3
  8
DATA
  6
CONTINUOUS
 62
     7
 10
205.41499999999999
 20
278.73736732002209
 30
0.0
 11
208.35888105359959
 21
278.73736732002209
 31
0.0
  0
ARC
  5
1E4
  8
DATA
  6
CONTINUOUS
 62
     7
 10
213.4610460227745
 20
277.78848388999228
 30
0.0
 40
0.9499999999999896
 50
87.221813828036474
 51
269.9999999999992
  0
ARC
  5
1E5
  8
DATA
  6
CONTINUOUS
 62
     7
 10
216.31283503080891
 20
277.78848388999228
 30
0.0
 40
0.9500000000000172
 50
269.9999999999992
 51
92.778186171993497
  0
LINE
  5
1E6
  8
DATA
  6
CONTINUOUS
 62
     7
 10
213.4610460227745
 20
276.83848388999229
 30
0.0
 11
216.31283503080891
 21
276.83848388999229
 31
0.0
  0
LINE
  5
1E7
  8
DATA
  6
CONTINUOUS
 62
     7
 10
213.41499999999999
 20
278.73736732002209
 30
0.0
 11
216.35888105359959
 21
278.73736732002209
 31
0.0
  0
ARC
  5
1E8
  8
DATA
  6
CONTINUOUS
 62
     7
 10
221.4610460227745
 20
277.78848388999228
 30
0.0
 40
0.9499999999999896
 50
87.221813828036474
 51
269.9999999999992
  0
ARC
  5
1E9
  8
DATA
  6
CONTINUOUS
 62
     7
 10
224.31283503080891
 20
277.78848388999228
 30
0.0
 40
0.9500000000000172
 50
269.9999999999992
 51
92.778186171993497
  0
LINE
  5
1EA
  8
DATA
  6
CONTINUOUS
 62
     7
 10
221.4610460227745
 20
276.83848388999229
 30
0.0
 11
224.31283503080891
 21
276.83848388999229
 31
0.0
  0
LINE
  5
1EB
  8
DATA
  6
CONTINUOUS
 62
     7
 10
221.41499999999999
 20
278.73736732002209
 30
0.0
 11
224.35888105359959
 21
278.73736732002209
 31
0.0
  0
ARC
  5
1EC
  8
DATA
  6
CONTINUOUS
 62
     7
 10
229.4610460227745
 20
277.78848388999228
 30
0.0
 40
0.9499999999999879
 50
87.221813828038194
 51
269.99999999999841
  0
ARC
  5
1ED
  8
DATA
  6
CONTINUOUS
 62
     7
 10
232.312835030809
 20
277.78848388999228
 30
0.0
 40
0.9500000000000172
 50
269.99999999999841
 51
92.778186171996097
  0
LINE
  5
1EE
  8
DATA
  6
CONTINUOUS
 62
     7
 10
229.4610460227745
 20
276.83848388999229
 30
0.0
 11
232.312835030809
 21
276.83848388999229
 31
0.0
  0
LINE
  5
1EF
  8
DATA
  6
CONTINUOUS
 62
     7
 10
229.41499999999999
 20
278.73736732002209
 30
0.0
 11
232.35888105359959
 21
278.73736732002209
 31
0.0
  0
ARC
  5
1F0
  8
DATA
  6
CONTINUOUS
 62
     7
 10
237.4610460227745
 20
277.78848388999228
 30
0.0
 40
0.9499999999999879
 50
87.221813828038194
 51
269.99999999999841
  0
ARC
  5
1F1
  8
DATA
  6
CONTINUOUS
 62
     7
 10
240.312835030809
 20
277.78848388999228
 30
0.0
 40
0.9500000000000172
 50
269.99999999999841
 51
92.778186171996097
  0
LINE
  5
1F2
  8
DATA
  6
CONTINUOUS
 62
     7
 10
237.4610460227745
 20
276.83848388999229
 30
0.0
 11
240.312835030809
 21
276.83848388999229
 31
0.0
  0
LINE
  5
1F3
  8
DATA
  6
CONTINUOUS
 62
     7
 10
237.41499999999999
 20
278.73736732002209
 30
0.0
 11
240.35888105359959
 21
278.73736732002209
 31
0.0
  0
ARC
  5
1F4
  8
DATA
  6
CONTINUOUS
 62
     7
 10
245.4610460227745
 20
277.78848388999228
 30
0.0
 40
0.9499999999999879
 50
87.221813828038194
 51
269.99999999999841
  0
ARC
  5
1F5
  8
DATA
  6
CONTINUOUS
 62
     7
 10
248.312835030809
 20
277.78848388999228
 30
0.0
 40
0.9500000000000172
 50
269.99999999999841
 51
92.778186171996097
  0
LINE
  5
1F6
  8
DATA
  6
CONTINUOUS
 62
     7
 10
245.4610460227745
 20
276.83848388999229
 30
0.0
 11
248.312835030809
 21
276.83848388999229
 31
0.0
  0
LINE
  5
1F7
  8
DATA
  6
CONTINUOUS
 62
     7
 10
245.41499999999999
 20
278.73736732002209
 30
0.0
 11
248.35888105359959
 21
278.73736732002209
 31
0.0
  0
ARC
  5
1F8
  8
DATA
  6
CONTINUOUS
 62
     7
 10
253.4610460227745
 20
277.78848388999228
 30
0.0
 40
0.9499999999999879
 50
87.221813828038194
 51
269.99999999999841
  0
ARC
  5
1F9
  8
DATA
  6
CONTINUOUS
 62
     7
 10
256.31283503080903
 20
277.78848388999228
 30
0.0
 40
0.9500000000000172
 50
269.99999999999841
 51
92.778186171996097
  0
LINE
  5
1FA
  8
DATA
  6
CONTINUOUS
 62
     7
 10
253.4610460227745
 20
276.83848388999229
 30
0.0
 11
256.31283503080903
 21
276.83848388999229
 31
0.0
  0
LINE
  5
1FB
  8
DATA
  6
CONTINUOUS
 62
     7
 10
253.41499999999999
 20
278.73736732002209
 30
0.0
 11
256.35888105359959
 21
278.73736732002209
 31
0.0
  0
ARC
  5
1FC
  8
DATA
  6
CONTINUOUS
 62
     7
 10
261.4610460227745
 20
277.78848388999228
 30
0.0
 40
0.9499999999999879
 50
87.221813828038194
 51
269.99999999999841
  0
ARC
  5
1FD
  8
DATA
  6
CONTINUOUS
 62
     7
 10
264.31283503080903
 20
277.78848388999228
 30
0.0
 40
0.9500000000000172
 50
269.99999999999841
 51
92.778186171996097
  0
LINE
  5
1FE
  8
DATA
  6
CONTINUOUS
 62
     7
 10
261.4610460227745
 20
276.83848388999229
 30
0.0
 11
264.31283503080903
 21
276.83848388999229
 31
0.0
  0
LINE
  5
1FF
  8
DATA
  6
CONTINUOUS
 62
     7
 10
261.41500000000002
 20
278.73736732002209
 30
0.0
 11
264.35888105359959
 21
278.73736732002209
 31
0.0
  0
LINE
  5
200
  8
DATA
  6
CONTINUOUS
 62
     7
 10
168.35888105359959
 20
280.2626326799778
 30
0.0
 11
261.56
 21
280.2626326799778
 31
0.0
  0
LINE
  5
201
  8
DATA
  6
CONTINUOUS
 62
     7
 10
261.40739613531917
 20
282.16000000000003
 30
0.0
 11
168.18000000000001
 21
282.16000000000003
 31
0.0
  0
LINE
  5
202
  8
DATA
  6
CONTINUOUS
 62
     7
 10
168.16
 20
278.73736732002209
 30
0.0
 11
261.69999999999999
 21
278.73736732002209
 31
0.0
  0
LINE
  5
203
  8
DATA
  6
CONTINUOUS
 62
     7
 10
261.4610460227745
 20
276.83848388999229
 30
0.0
 11
168.09999999999999
 21
276.83848388999229
 31
0.0
  0
ARC
  5
204
  8
DATA
  6
CONTINUOUS
 62
     7
 10
176.98453590696991
 20
246.20195527234901
 30
0.0
 40
0.210000000000008
 50
270.0
 51
90.0
  0
ARC
  5
205
  8
DATA
  6
CONTINUOUS
 62
     7
 10
172.83874996310641
 20
246.20195527234901
 30
0.0
 40
0.210000000000008
 50
90.0
 51
270.0
  0
LINE
  5
206
  8
DATA
  6
CONTINUOUS
 62
     7
 10
176.98453590696991
 20
246.41195527234899
 30
0.0
 11
172.83874996310641
 21
246.41195527234899
 31
0.0
  0
LINE
  5
207
  8
DATA
  6
CONTINUOUS
 62
     7
 10
172.83874996310641
 20
245.991955272349
 30
0.0
 11
176.98716103157579
 21
245.991955272349
 31
0.0
  0
ARC
  5
208
  8
DATA
  6
CONTINUOUS
 62
     7
 10
184.98453590697
 20
246.20195527234901
 30
0.0
 40
0.210000000000008
 50
270.0
 51
90.0
  0
ARC
  5
209
  8
DATA
  6
CONTINUOUS
 62
     7
 10
180.83874996310641
 20
246.20195527234901
 30
0.0
 40
0.210000000000008
 50
90.0
 51
270.0
  0
LINE
  5
20A
  8
DATA
  6
CONTINUOUS
 62
     7
 10
184.98453590697
 20
246.41195527234899
 30
0.0
 11
180.83874996310641
 21
246.41195527234899
 31
0.0
  0
LINE
  5
20B
  8
DATA
  6
CONTINUOUS
 62
     7
 10
180.83874996310641
 20
245.991955272349
 30
0.0
 11
184.98716103157579
 21
245.991955272349
 31
0.0
  0
ARC
  5
20C
  8
DATA
  6
CONTINUOUS
 62
     7
 10
192.98453590697
 20
246.20195527234901
 30
0.0
 40
0.210000000000008
 50
270.0
 51
90.0
  0
ARC
  5
20D
  8
DATA
  6
CONTINUOUS
 62
     7
 10
188.83874996310649
 20
246.20195527234901
 30
0.0
 40
0.210000000000008
 50
90.0
 51
270.0
  0
LINE
  5
20E
  8
DATA
  6
CONTINUOUS
 62
     7
 10
192.98453590697
 20
246.41195527234899
 30
0.0
 11
188.83874996310649
 21
246.41195527234899
 31
0.0
  0
LINE
  5
20F
  8
DATA
  6
CONTINUOUS
 62
     7
 10
188.83874996310649
 20
245.991955272349
 30
0.0
 11
192.98716103157579
 21
245.991955272349
 31
0.0
  0
ARC
  5
210
  8
DATA
  6
CONTINUOUS
 62
     7
 10
200.98453590697
 20
246.20195527234901
 30
0.0
 40
0.210000000000008
 50
270.0
 51
90.0
  0
ARC
  5
211
  8
DATA
  6
CONTINUOUS
 62
     7
 10
196.83874996310641
 20
246.20195527234901
 30
0.0
 40
0.210000000000008
 50
90.0
 51
270.0
  0
LINE
  5
212
  8
DATA
  6
CONTINUOUS
 62
     7
 10
200.98453590697
 20
246.41195527234899
 30
0.0
 11
196.83874996310641
 21
246.41195527234899
 31
0.0
  0
LINE
  5
213
  8
DATA
  6
CONTINUOUS
 62
     7
 10
196.83874996310641
 20
245.991955272349
 30
0.0
 11
200.98716103157579
 21
245.991955272349
 31
0.0
  0
ARC
  5
214
  8
DATA
  6
CONTINUOUS
 62
     7
 10
208.98453590697
 20
246.20195527234901
 30
0.0
 40
0.210000000000008
 50
270.0
 51
90.0
  0
ARC
  5
215
  8
DATA
  6
CONTINUOUS
 62
     7
 10
204.83874996310641
 20
246.20195527234901
 30
0.0
 40
0.210000000000008
 50
90.0
 51
270.0
  0
LINE
  5
216
  8
DATA
  6
CONTINUOUS
 62
     7
 10
208.98453590697
 20
246.41195527234899
 30
0.0
 11
204.83874996310641
 21
246.41195527234899
 31
0.0
  0
LINE
  5
217
  8
DATA
  6
CONTINUOUS
 62
     7
 10
204.83874996310641
 20
245.991955272349
 30
0.0
 11
208.98716103157579
 21
245.991955272349
 31
0.0
  0
ARC
  5
218
  8
DATA
  6
CONTINUOUS
 62
     7
 10
216.98453590697
 20
246.20195527234901
 30
0.0
 40
0.210000000000008
 50
270.0
 51
90.0
  0
ARC
  5
219
  8
DATA
  6
CONTINUOUS
 62
     7
 10
212.83874996310641
 20
246.20195527234901
 30
0.0
 40
0.210000000000008
 50
90.0
 51
270.0
  0
LINE
  5
21A
  8
DATA
  6
CONTINUOUS
 62
     7
 10
216.98453590697
 20
246.41195527234899
 30
0.0
 11
212.83874996310641
 21
246.41195527234899
 31
0.0
  0
LINE
  5
21B
  8
DATA
  6
CONTINUOUS
 62
     7
 10
212.83874996310641
 20
245.991955272349
 30
0.0
 11
216.98716103157579
 21
245.991955272349
 31
0.0
  0
ARC
  5
21C
  8
DATA
  6
CONTINUOUS
 62
     7
 10
224.98453590697
 20
246.20195527234901
 30
0.0
 40
0.210000000000008
 50
270.0
 51
90.0
  0
ARC
  5
21D
  8
DATA
  6
CONTINUOUS
 62
     7
 10
220.83874996310649
 20
246.20195527234901
 30
0.0
 40
0.210000000000008
 50
90.0
 51
270.0
  0
LINE
  5
21E
  8
DATA
  6
CONTINUOUS
 62
     7
 10
224.98453590697
 20
246.41195527234899
 30
0.0
 11
220.83874996310649
 21
246.41195527234899
 31
0.0
  0
LINE
  5
21F
  8
DATA
  6
CONTINUOUS
 62
     7
 10
220.83874996310649
 20
245.991955272349
 30
0.0
 11
224.98716103157579
 21
245.991955272349
 31
0.0
  0
ARC
  5
220
  8
DATA
  6
CONTINUOUS
 62
     7
 10
232.98453590697
 20
246.20195527234901
 30
0.0
 40
0.210000000000008
 50
270.0
 51
90.0
  0
ARC
  5
221
  8
DATA
  6
CONTINUOUS
 62
     7
 10
228.83874996310649
 20
246.20195527234901
 30
0.0
 40
0.210000000000008
 50
90.0
 51
270.0
  0
LINE
  5
222
  8
DATA
  6
CONTINUOUS
 62
     7
 10
232.98453590697
 20
246.41195527234899
 30
0.0
 11
228.83874996310649
 21
246.41195527234899
 31
0.0
  0
LINE
  5
223
  8
DATA
  6
CONTINUOUS
 62
     7
 10
228.83874996310649
 20
245.991955272349
 30
0.0
 11
232.98716103157591
 21
245.991955272349
 31
0.0
  0
ARC
  5
224
  8
DATA
  6
CONTINUOUS
 62
     7
 10
240.98453590697
 20
246.20195527234901
 30
0.0
 40
0.210000000000008
 50
270.0
 51
90.0
  0
ARC
  5
225
  8
DATA
  6
CONTINUOUS
 62
     7
 10
236.83874996310649
 20
246.20195527234901
 30
0.0
 40
0.210000000000008
 50
90.0
 51
270.0
  0
LINE
  5
226
  8
DATA
  6
CONTINUOUS
 62
     7
 10
240.98453590697
 20
246.41195527234899
 30
0.0
 11
236.83874996310649
 21
246.41195527234899
 31
0.0
  0
LINE
  5
227
  8
DATA
  6
CONTINUOUS
 62
     7
 10
236.83874996310649
 20
245.991955272349
 30
0.0
 11
240.98716103157591
 21
245.991955272349
 31
0.0
  0
ARC
  5
228
  8
DATA
  6
CONTINUOUS
 62
     7
 10
248.98453590697
 20
246.20195527234901
 30
0.0
 40
0.210000000000008
 50
270.0
 51
90.0
  0
ARC
  5
229
  8
DATA
  6
CONTINUOUS
 62
     7
 10
244.83874996310649
 20
246.20195527234901
 30
0.0
 40
0.210000000000008
 50
90.0
 51
270.0
  0
LINE
  5
22A
  8
DATA
  6
CONTINUOUS
 62
     7
 10
248.98453590697
 20
246.41195527234899
 30
0.0
 11
244.83874996310649
 21
246.41195527234899
 31
0.0
  0
LINE
  5
22B
  8
DATA
  6
CONTINUOUS
 62
     7
 10
244.83874996310649
 20
245.991955272349
 30
0.0
 11
248.98716103157591
 21
245.991955272349
 31
0.0
  0
ARC
  5
22C
  8
DATA
  6
CONTINUOUS
 62
     7
 10
256.98453590697
 20
246.20195527234901
 30
0.0
 40
0.210000000000008
 50
270.0
 51
90.0
  0
ARC
  5
22D
  8
DATA
  6
CONTINUOUS
 62
     7
 10
252.83874996310649
 20
246.20195527234901
 30
0.0
 40
0.210000000000008
 50
90.0
 51
270.0
  0
LINE
  5
22E
  8
DATA
  6
CONTINUOUS
 62
     7
 10
256.98453590697
 20
246.41195527234899
 30
0.0
 11
252.83874996310649
 21
246.41195527234899
 31
0.0
  0
LINE
  5
22F
  8
DATA
  6
CONTINUOUS
 62
     7
 10
252.83874996310649
 20
245.991955272349
 30
0.0
 11
256.98716103157579
 21
245.991955272349
 31
0.0
  0
ARC
  5
230
  8
DATA
  6
CONTINUOUS
 62
     7
 10
264.20102841302889
 20
246.20195527234901
 30
0.0
 40
0.210000000000008
 50
270.0
 51
90.0
  0
ARC
  5
231
  8
DATA
  6
CONTINUOUS
 62
     7
 10
260.05524246916548
 20
246.20195527234901
 30
0.0
 40
0.210000000000008
 50
90.0
 51
270.0
  0
LINE
  5
232
  8
DATA
  6
CONTINUOUS
 62
     7
 10
264.20102841302889
 20
246.41195527234899
 30
0.0
 11
260.05524246916548
 21
246.41195527234899
 31
0.0
  0
LINE
  5
233
  8
DATA
  6
CONTINUOUS
 62
     7
 10
260.05524246916548
 20
245.991955272349
 30
0.0
 11
264.20365353763492
 21
245.991955272349
 31
0.0
  0
ARC
  5
234
  8
DATA
  6
CONTINUOUS
 62
     7
 10
168.98453590696991
 20
237.79804472765099
 30
0.0
 40
0.210000000000008
 50
270.0
 51
90.0
  0
ARC
  5
235
  8
DATA
  6
CONTINUOUS
 62
     7
 10
164.83874996310649
 20
237.79804472765099
 30
0.0
 40
0.210000000000008
 50
90.0
 51
270.0
  0
LINE
  5
236
  8
DATA
  6
CONTINUOUS
 62
     7
 10
168.98453590696991
 20
237.5880447276509
 30
0.0
 11
164.83874996310649
 21
237.5880447276509
 31
0.0
  0
LINE
  5
237
  8
DATA
  6
CONTINUOUS
 62
     7
 10
164.83874996310649
 20
238.008044727651
 30
0.0
 11
168.98716103157579
 21
238.008044727651
 31
0.0
  0
ARC
  5
238
  8
DATA
  6
CONTINUOUS
 62
     7
 10
176.98453590696991
 20
237.79804472765099
 30
0.0
 40
0.210000000000008
 50
270.0
 51
90.0
  0
ARC
  5
239
  8
DATA
  6
CONTINUOUS
 62
     7
 10
172.83874996310641
 20
237.79804472765099
 30
0.0
 40
0.210000000000008
 50
90.0
 51
270.0
  0
LINE
  5
23A
  8
DATA
  6
CONTINUOUS
 62
     7
 10
176.98453590696991
 20
237.5880447276509
 30
0.0
 11
172.83874996310641
 21
237.5880447276509
 31
0.0
  0
LINE
  5
23B
  8
DATA
  6
CONTINUOUS
 62
     7
 10
172.83874996310641
 20
238.008044727651
 30
0.0
 11
176.98716103157579
 21
238.008044727651
 31
0.0
  0
ARC
  5
23C
  8
DATA
  6
CONTINUOUS
 62
     7
 10
184.98453590697
 20
237.79804472765099
 30
0.0
 40
0.210000000000008
 50
270.0
 51
90.0
  0
ARC
  5
23D
  8
DATA
  6
CONTINUOUS
 62
     7
 10
180.83874996310641
 20
237.79804472765099
 30
0.0
 40
0.210000000000008
 50
90.0
 51
270.0
  0
LINE
  5
23E
  8
DATA
  6
CONTINUOUS
 62
     7
 10
184.98453590697
 20
237.5880447276509
 30
0.0
 11
180.83874996310641
 21
237.5880447276509
 31
0.0
  0
LINE
  5
23F
  8
DATA
  6
CONTINUOUS
 62
     7
 10
180.83874996310641
 20
238.008044727651
 30
0.0
 11
184.98716103157579
 21
238.008044727651
 31
0.0
  0
ARC
  5
240
  8
DATA
  6
CONTINUOUS
 62
     7
 10
192.98453590697
 20
237.79804472765099
 30
0.0
 40
0.210000000000008
 50
270.0
 51
90.0
  0
ARC
  5
241
  8
DATA
  6
CONTINUOUS
 62
     7
 10
188.83874996310649
 20
237.79804472765099
 30
0.0
 40
0.210000000000008
 50
90.0
 51
270.0
  0
LINE
  5
242
  8
DATA
  6
CONTINUOUS
 62
     7
 10
192.98453590697
 20
237.5880447276509
 30
0.0
 11
188.83874996310649
 21
237.5880447276509
 31
0.0
  0
LINE
  5
243
  8
DATA
  6
CONTINUOUS
 62
     7
 10
188.83874996310649
 20
238.008044727651
 30
0.0
 11
192.98716103157579
 21
238.008044727651
 31
0.0
  0
ARC
  5
244
  8
DATA
  6
CONTINUOUS
 62
     7
 10
200.98453590697
 20
237.79804472765099
 30
0.0
 40
0.210000000000008
 50
270.0
 51
90.0
  0
ARC
  5
245
  8
DATA
  6
CONTINUOUS
 62
     7
 10
196.83874996310641
 20
237.79804472765099
 30
0.0
 40
0.210000000000008
 50
90.0
 51
270.0
  0
LINE
  5
246
  8
DATA
  6
CONTINUOUS
 62
     7
 10
200.98453590697
 20
237.5880447276509
 30
0.0
 11
196.83874996310641
 21
237.5880447276509
 31
0.0
  0
LINE
  5
247
  8
DATA
  6
CONTINUOUS
 62
     7
 10
196.83874996310641
 20
238.008044727651
 30
0.0
 11
200.98716103157579
 21
238.008044727651
 31
0.0
  0
ARC
  5
248
  8
DATA
  6
CONTINUOUS
 62
     7
 10
208.98453590697
 20
237.79804472765099
 30
0.0
 40
0.210000000000008
 50
270.0
 51
90.0
  0
ARC
  5
249
  8
DATA
  6
CONTINUOUS
 62
     7
 10
204.83874996310641
 20
237.79804472765099
 30
0.0
 40
0.210000000000008
 50
90.0
 51
270.0
  0
LINE
  5
24A
  8
DATA
  6
CONTINUOUS
 62
     7
 10
208.98453590697
 20
237.5880447276509
 30
0.0
 11
204.83874996310641
 21
237.5880447276509
 31
0.0
  0
LINE
  5
24B
  8
DATA
  6
CONTINUOUS
 62
     7
 10
204.83874996310641
 20
238.008044727651
 30
0.0
 11
208.98716103157579
 21
238.008044727651
 31
0.0
  0
ARC
  5
24C
  8
DATA
  6
CONTINUOUS
 62
     7
 10
216.98453590697
 20
237.79804472765099
 30
0.0
 40
0.210000000000008
 50
270.0
 51
90.0
  0
ARC
  5
24D
  8
DATA
  6
CONTINUOUS
 62
     7
 10
212.83874996310641
 20
237.79804472765099
 30
0.0
 40
0.210000000000008
 50
90.0
 51
270.0
  0
LINE
  5
24E
  8
DATA
  6
CONTINUOUS
 62
     7
 10
216.98453590697
 20
237.5880447276509
 30
0.0
 11
212.83874996310641
 21
237.5880447276509
 31
0.0
  0
LINE
  5
24F
  8
DATA
  6
CONTINUOUS
 62
     7
 10
212.83874996310641
 20
238.008044727651
 30
0.0
 11
216.98716103157579
 21
238.008044727651
 31
0.0
  0
ARC
  5
250
  8
DATA
  6
CONTINUOUS
 62
     7
 10
224.98453590697
 20
237.79804472765099
 30
0.0
 40
0.210000000000008
 50
270.0
 51
90.0
  0
ARC
  5
251
  8
DATA
  6
CONTINUOUS
 62
     7
 10
220.83874996310649
 20
237.79804472765099
 30
0.0
 40
0.210000000000008
 50
90.0
 51
270.0
  0
LINE
  5
252
  8
DATA
  6
CONTINUOUS
 62
     7
 10
224.98453590697
 20
237.5880447276509
 30
0.0
 11
220.83874996310649
 21
237.5880447276509
 31
0.0
  0
LINE
  5
253
  8
DATA
  6
CONTINUOUS
 62
     7
 10
220.83874996310649
 20
238.008044727651
 30
0.0
 11
224.98716103157579
 21
238.008044727651
 31
0.0
  0
ARC
  5
254
  8
DATA
  6
CONTINUOUS
 62
     7
 10
232.98453590697
 20
237.79804472765099
 30
0.0
 40
0.210000000000008
 50
270.0
 51
90.0
  0
ARC
  5
255
  8
DATA
  6
CONTINUOUS
 62
     7
 10
228.83874996310649
 20
237.79804472765099
 30
0.0
 40
0.210000000000008
 50
90.0
 51
270.0
  0
LINE
  5
256
  8
DATA
  6
CONTINUOUS
 62
     7
 10
232.98453590697
 20
237.5880447276509
 30
0.0
 11
228.83874996310649
 21
237.5880447276509
 31
0.0
  0
LINE
  5
257
  8
DATA
  6
CONTINUOUS
 62
     7
 10
228.83874996310649
 20
238.008044727651
 30
0.0
 11
232.98716103157591
 21
238.008044727651
 31
0.0
  0
ARC
  5
258
  8
DATA
  6
CONTINUOUS
 62
     7
 10
240.98453590697
 20
237.79804472765099
 30
0.0
 40
0.210000000000008
 50
270.0
 51
90.0
  0
ARC
  5
259
  8
DATA
  6
CONTINUOUS
 62
     7
 10
236.83874996310649
 20
237.79804472765099
 30
0.0
 40
0.210000000000008
 50
90.0
 51
270.0
  0
LINE
  5
25A
  8
DATA
  6
CONTINUOUS
 62
     7
 10
240.98453590697
 20
237.5880447276509
 30
0.0
 11
236.83874996310649
 21
237.5880447276509
 31
0.0
  0
LINE
  5
25B
  8
DATA
  6
CONTINUOUS
 62
     7
 10
236.83874996310649
 20
238.008044727651
 30
0.0
 11
240.98716103157591
 21
238.008044727651
 31
0.0
  0
ARC
  5
25C
  8
DATA
  6
CONTINUOUS
 62
     7
 10
248.98453590697
 20
237.79804472765099
 30
0.0
 40
0.210000000000008
 50
270.0
 51
90.0
  0
ARC
  5
25D
  8
DATA
  6
CONTINUOUS
 62
     7
 10
244.83874996310649
 20
237.79804472765099
 30
0.0
 40
0.210000000000008
 50
90.0
 51
270.0
  0
LINE
  5
25E
  8
DATA
  6
CONTINUOUS
 62
     7
 10
248.98453590697
 20
237.5880447276509
 30
0.0
 11
244.83874996310649
 21
237.5880447276509
 31
0.0
  0
LINE
  5
25F
  8
DATA
  6
CONTINUOUS
 62
     7
 10
244.83874996310649
 20
238.008044727651
 30
0.0
 11
248.98716103157591
 21
238.008044727651
 31
0.0
  0
ARC
  5
260
  8
DATA
  6
CONTINUOUS
 62
     7
 10
256.98453590697
 20
237.79804472765099
 30
0.0
 40
0.210000000000008
 50
270.0
 51
90.0
  0
ARC
  5
261
  8
DATA
  6
CONTINUOUS
 62
     7
 10
252.83874996310649
 20
237.79804472765099
 30
0.0
 40
0.210000000000008
 50
90.0
 51
270.0
  0
LINE
  5
262
  8
DATA
  6
CONTINUOUS
 62
     7
 10
256.98453590697
 20
237.5880447276509
 30
0.0
 11
252.83874996310649
 21
237.5880447276509
 31
0.0
  0
LINE
  5
263
  8
DATA
  6
CONTINUOUS
 62
     7
 10
252.83874996310649
 20
238.008044727651
 30
0.0
 11
256.98716103157579
 21
238.008044727651
 31
0.0
  0
ARC
  5
264
  8
DATA
  6
CONTINUOUS
 62
     7
 10
264.20102841302889
 20
237.79804472765099
 30
0.0
 40
0.210000000000008
 50
270.0
 51
90.0
  0
ARC
  5
265
  8
DATA
  6
CONTINUOUS
 62
     7
 10
260.05524246916548
 20
237.79804472765099
 30
0.0
 40
0.210000000000008
 50
90.0
 51
270.0
  0
LINE
  5
266
  8
DATA
  6
CONTINUOUS
 62
     7
 10
264.20102841302889
 20
237.5880447276509
 30
0.0
 11
260.05524246916548
 21
237.5880447276509
 31
0.0
  0
LINE
  5
267
  8
DATA
  6
CONTINUOUS
 62
     7
 10
260.05524246916548
 20
238.008044727651
 30
0.0
 11
264.20365353763492
 21
238.008044727651
 31
0.0
  0
LINE
  5
268
  8
DATA
  6
CONTINUOUS
 62
     7
 10
120.5
 20
277.5
 30
0.0
 11
120.5
 21
281.5
 31
0.0
  0
LINE
  5
269
  8
DATA
  6
CONTINUOUS
 62
     7
 10
120.5
 20
281.5
 30
0.0
 11
137.5
 21
281.5
 31
0.0
  0
LINE
  5
26A
  8
DATA
  6
CONTINUOUS
 62
     7
 10
120.5
 20
277.5
 30
0.0
 11
137.5
 21
277.5
 31
0.0
  0
LINE
  5
26B
  8
DATA
  6
CONTINUOUS
 62
     7
 10
107.9870108819127
 20
280.89999999999998
 30
0.0
 11
120.5
 21
280.89999999999998
 31
0.0
  0
LINE
  5
26C
  8
DATA
  6
CONTINUOUS
 62
     7
 10
107.9870108819127
 20
278.10000000000002
 30
0.0
 11
120.5
 21
278.10000000000002
 31
0.0
  0
ARC
  5
26D
  8
DATA
  6
CONTINUOUS
 62
     7
 10
107.9870108819127
 20
280.19999999999999
 30
0.0
 40
0.6999999999999887
 50
90.0
 51
270.000011586928
  0
ARC
  5
26E
  8
DATA
  6
CONTINUOUS
 62
     7
 10
107.9870108819127
 20
278.80000000000001
 30
0.0
 40
0.6999999999999887
 50
269.99999999999937
 51
90.000014145094895
  0
POLYLINE
  5
26F
  8
DATA
  6
STYLE_05
 62
     7
 66
     1
 10
0.0
 20
0.0
 30
0.0
  0
VERTEX
  5
B08
  8
DATA
  6
STYLE_05
 62
     7
 10
269.5
 20
232.0
 30
0.0
  0
VERTEX
  5
B09
  8
DATA
  6
STYLE_05
 62
     7
 10
144.5
 20
232.0
 30
0.0
  0
VERTEX
  5
B0A
  8
DATA
  6
STYLE_05
 62
     7
 10
144.5
 20
252.0
 30
0.0
  0
VERTEX
  5
B0B
  8
DATA
  6
STYLE_05
 62
     7
 10
284.5
 20
252.0
 30
0.0
  0
SEQEND
  5
B0C
  8
DATA
  6
STYLE_05
 62
     7
  0
LINE
  5
276
  8
DATA
  6
STYLE_05
 62
     7
 10
269.5
 20
232.0
 30
0.0
 11
284.5
 21
252.0
 31
0.0
  0
LINE
  5
277
  8
DATA
  6
CONTINUOUS
 62
     7
 10
120.5
 20
240.0
 30
0.0
 11
120.5
 21
244.0
 31
0.0
  0
LINE
  5
278
  8
DATA
  6
CONTINUOUS
 62
     7
 10
120.5
 20
244.0
 30
0.0
 11
137.5
 21
244.0
 31
0.0
  0
LINE
  5
279
  8
DATA
  6
CONTINUOUS
 62
     7
 10
120.5
 20
240.0
 30
0.0
 11
137.5
 21
240.0
 31
0.0
  0
LINE
  5
27A
  8
DATA
  6
CONTINUOUS
 62
     7
 10
51.0
 20
243.40000000000001
 30
0.0
 11
120.5
 21
243.40000000000001
 31
0.0
  0
LINE
  5
27B
  8
DATA
  6
CONTINUOUS
 62
     7
 10
53.79999999999999
 20
240.59999999999999
 30
0.0
 11
120.5
 21
240.59999999999999
 31
0.0
  0
LINE
  5
27C
  8
DATA
  6
CONTINUOUS
 62
     7
 10
212.5
 20
150.0
 30
0.0
 11
272.5
 21
150.0
 31
0.0
  0
LINE
  5
27D
  8
DATA
  6
CONTINUOUS
 62
     7
 10
212.5
 20
169.0
 30
0.0
 11
272.5
 21
169.0
 31
0.0
  0
LINE
  5
27E
  8
DATA
  6
CONTINUOUS
 62
     7
 10
162.5
 20
165.0
 30
0.0
 11
162.5
 21
154.0
 31
0.0
  0
LINE
  5
27F
  8
DATA
  6
CONTINUOUS
 62
     7
 10
272.5
 20
169.0
 30
0.0
 11
272.5
 21
150.0
 31
0.0
  0
LINE
  5
280
  8
DATA
  6
CONTINUOUS
 62
     7
 10
212.5
 20
169.0
 30
0.0
 11
212.5
 21
150.0
 31
0.0
  0
LINE
  5
281
  8
DATA
  6
CONTINUOUS
 62
     7
 10
162.5
 20
165.0
 30
0.0
 11
212.5
 21
169.0
 31
0.0
  0
LINE
  5
282
  8
DATA
  6
CONTINUOUS
 62
     7
 10
212.5
 20
150.0
 30
0.0
 11
162.5
 21
154.0
 31
0.0
  0
LINE
  5
283
  8
DATA
  6
CONTINUOUS
 62
     7
 10
176.5
 20
152.88
 30
0.0
 11
176.5
 21
166.12
 31
0.0
  0
POLYLINE
  5
284
  8
DATA
  6
CONTINUOUS
 62
     7
 66
     1
 10
0.0
 20
0.0
 30
0.0
 70
     1
  0
VERTEX
  5
B0D
  8
DATA
  6
CONTINUOUS
 62
     7
 10
268.89999999999998
 20
162.5
 30
0.0
  0
VERTEX
  5
B0E
  8
DATA
  6
CONTINUOUS
 62
     7
 10
270.89999999999998
 20
162.5
 30
0.0
  0
VERTEX
  5
B0F
  8
DATA
  6
CONTINUOUS
 62
     7
 10
270.89999999999998
 20
156.5
 30
0.0
  0
VERTEX
  5
B10
  8
DATA
  6
CONTINUOUS
 62
     7
 10
268.89999999999998
 20
156.5
 30
0.0
  0
SEQEND
  5
B11
  8
DATA
  6
CONTINUOUS
 62
     7
  0
ARC
  5
28B
  8
DATA
  6
CONTINUOUS
 62
     7
 10
264.5
 20
159.5
 30
0.0
 40
3.0
 50
90.0
 51
270.0
  0
LINE
  5
28C
  8
DATA
  6
CONTINUOUS
 62
     7
 10
268.89999999999998
 20
162.5
 30
0.0
 11
264.5
 21
162.5
 31
0.0
  0
LINE
  5
28D
  8
DATA
  6
CONTINUOUS
 62
     7
 10
268.89999999999998
 20
156.5
 30
0.0
 11
264.5
 21
156.5
 31
0.0
  0
LINE
  5
28E
  8
DATA
  6
CONTINUOUS
 62
     7
 10
263.55000000000001
 20
157.5
 30
0.0
 11
267.55000000000001
 21
159.5
 31
0.0
  0
LINE
  5
28F
  8
DATA
  6
CONTINUOUS
 62
     7
 10
267.55000000000001
 20
159.5
 30
0.0
 11
263.55000000000001
 21
161.5
 31
0.0
  0
LINE
  5
290
  8
DATA
  6
CONTINUOUS
 62
     7
 10
263.55000000000001
 20
157.5
 30
0.0
 11
263.55000000000001
 21
161.5
 31
0.0
  0
CIRCLE
  5
291
  8
DATA
  6
CONTINUOUS
 62
     7
 10
254.5
 20
159.5
 30
0.0
 40
2.164999999999992
  0
LINE
  5
292
  8
DATA
  6
CONTINUOUS
 62
     7
 10
253.2298294077828
 20
159.5
 30
0.0
 11
255.7701705922172
 21
159.5
 31
0.0
  0
LINE
  5
293
  8
DATA
  6
CONTINUOUS
 62
     7
 10
254.5
 20
158.2298294077828
 30
0.0
 11
254.5
 21
160.77017059221711
 31
0.0
  0
LINE
  5
294
  8
DATA
  6
CONTINUOUS
 62
     7
 10
226.5
 20
160.94999999999999
 30
0.0
 11
226.5
 21
158.05000000000001
 31
0.0
  0
LINE
  5
295
  8
DATA
  6
CONTINUOUS
 62
     7
 10
221.59999999999999
 20
160.94999999999999
 30
0.0
 11
221.59999999999999
 21
158.05000000000001
 31
0.0
  0
LINE
  5
296
  8
DATA
  6
CONTINUOUS
 62
     7
 10
226.5
 20
158.05000000000001
 30
0.0
 11
221.59999999999999
 21
158.05000000000001
 31
0.0
  0
LINE
  5
297
  8
DATA
  6
CONTINUOUS
 62
     7
 10
221.59999999999999
 20
160.94999999999999
 30
0.0
 11
226.5
 21
160.94999999999999
 31
0.0
  0
LINE
  5
298
  8
DATA
  6
CONTINUOUS
 62
     7
 10
224.09999999999999
 20
158.25
 30
0.0
 11
221.59999999999999
 21
158.25
 31
0.0
  0
LINE
  5
299
  8
DATA
  6
CONTINUOUS
 62
     7
 10
224.09999999999999
 20
160.75
 30
0.0
 11
224.09999999999999
 21
158.25
 31
0.0
  0
LINE
  5
29A
  8
DATA
  6
CONTINUOUS
 62
     7
 10
221.59999999999999
 20
160.75
 30
0.0
 11
224.09999999999999
 21
160.75
 31
0.0
  0
LINE
  5
29B
  8
DATA
  6
CONTINUOUS
 62
     7
 10
222.72
 20
158.25
 30
0.0
 11
222.72
 21
160.75
 31
0.0
  0
LINE
  5
29C
  8
DATA
  6
CONTINUOUS
 62
     7
 10
222.97999999999999
 20
158.25
 30
0.0
 11
222.97999999999999
 21
160.75
 31
0.0
  0
LINE
  5
29D
  8
DATA
  6
CONTINUOUS
 62
     7
 10
222.45943237722381
 20
153.0
 30
0.0
 11
222.45943237722381
 21
157.0
 31
0.0
  0
LINE
  5
29E
  8
DATA
  6
CONTINUOUS
 62
     7
 10
226.30000000000001
 20
157.0
 30
0.0
 11
226.30000000000001
 21
155.0
 31
0.0
  0
LINE
  5
29F
  8
DATA
  6
CONTINUOUS
 62
     7
 10
226.30000000000001
 20
155.0
 30
0.0
 11
227.19999999999999
 21
153.0
 31
0.0
  0
LINE
  5
2A0
  8
DATA
  6
CONTINUOUS
 62
     7
 10
190.5
 20
151.75999999999999
 30
0.0
 11
190.5
 21
167.24000000000001
 31
0.0
  0
LINE
  5
2A1
  8
DATA
  6
CONTINUOUS
 62
     7
 10
209.5
 20
168.75999999999999
 30
0.0
 11
209.5
 21
150.24000000000001
 31
0.0
  0
LINE
  5
2A2
  8
DATA
  6
CONTINUOUS
 62
     7
 10
206.5
 20
168.52000000000001
 30
0.0
 11
206.5
 21
150.47999999999999
 31
0.0
  0
LINE
  5
2A3
  8
DATA
  6
CONTINUOUS
 62
     7
 10
203.5
 20
168.28
 30
0.0
 11
203.5
 21
150.72
 31
0.0
  0
LINE
  5
2A4
  8
DATA
  6
CONTINUOUS
 62
     7
 10
200.5
 20
168.03999999999999
 30
0.0
 11
200.5
 21
150.96000000000001
 31
0.0
  0
LINE
  5
2A5
  8
DATA
  6
CONTINUOUS
 62
     7
 10
197.5
 20
167.80000000000001
 30
0.0
 11
197.5
 21
151.19999999999999
 31
0.0
  0
LINE
  5
2A6
  8
DATA
  6
CONTINUOUS
 62
     7
 10
194.5
 20
167.56
 30
0.0
 11
194.5
 21
151.44
 31
0.0
  0
LINE
  5
2A7
  8
DATA
  6
CONTINUOUS
 62
     7
 10
191.5
 20
167.31999999999999
 30
0.0
 11
191.5
 21
151.68000000000001
 31
0.0
  0
LINE
  5
2A8
  8
DATA
  6
CONTINUOUS
 62
     7
 10
162.5
 20
158.09999999999999
 30
0.0
 11
51.0
 21
158.09999999999999
 31
0.0
  0
LINE
  5
2A9
  8
DATA
  6
CONTINUOUS
 62
     7
 10
53.79999999999999
 20
160.90000000000001
 30
0.0
 11
162.5
 21
160.90000000000001
 31
0.0
  0
LINE
  5
2AA
  8
DATA
  6
CONTINUOUS
 62
     7
 10
38.0
 20
230.40000000000001
 30
0.0
 11
38.0
 21
202.8508424804121
 31
0.0
  0
LINE
  5
2AB
  8
DATA
  6
CONTINUOUS
 62
     7
 10
38.0
 20
200.1936913054769
 30
0.0
 11
38.0
 21
171.09999999999999
 31
0.0
  0
LINE
  5
2AC
  8
DATA
  6
CONTINUOUS
 62
     7
 10
40.799999999999997
 20
227.59999999999999
 30
0.0
 11
40.799999999999997
 21
200.96866685613449
 31
0.0
  0
LINE
  5
2AD
  8
DATA
  6
CONTINUOUS
 62
     7
 10
40.799999999999997
 20
198.3115134791864
 30
0.0
 11
40.799999999999997
 21
173.90000000000001
 31
0.0
  0
ARC
  5
2AE
  8
DATA
  6
CONTINUOUS
 62
     7
 10
53.79999999999999
 20
227.59999999999999
 30
0.0
 40
13.0
 50
90.0
 51
180.0
  0
ARC
  5
2AF
  8
DATA
  6
CONTINUOUS
 62
     7
 10
51.0
 20
230.40000000000001
 30
0.0
 40
13.0
 50
90.0
 51
180.0
  0
ARC
  5
2B0
  8
DATA
  6
CONTINUOUS
 62
     7
 10
53.79999999999999
 20
173.90000000000001
 30
0.0
 40
13.0
 50
180.0
 51
270.0
  0
ARC
  5
2B1
  8
DATA
  6
CONTINUOUS
 62
     7
 10
51.0
 20
171.09999999999999
 30
0.0
 40
13.0
 50
180.0
 51
270.0
  0
CIRCLE
  5
2B2
  8
DATA
  6
CONTINUOUS
 62
     7
 10
300.0
 20
159.5
 30
0.0
 40
9.5
  0
CIRCLE
  5
2B3
  8
DATA
  6
CONTINUOUS
 62
     7
 10
300.0
 20
159.5
 30
0.0
 40
8.1399999999999864
  0
CIRCLE
  5
2B4
  8
DATA
  6
CONTINUOUS
 62
     7
 10
300.0
 20
163.80000000000001
 30
0.0
 40
1.150000000000005
  0
CIRCLE
  5
2B5
  8
DATA
  6
CONTINUOUS
 62
     7
 10
300.0
 20
155.19999999999999
 30
0.0
 40
1.150000000000005
  0
CIRCLE
  5
2B6
  8
DATA
  6
CONTINUOUS
 62
     7
 10
304.30000000000001
 20
159.5
 30
0.0
 40
1.150000000000005
  0
ARC
  5
2B7
  8
DATA
  6
CONTINUOUS
 62
     7
 10
42.386771710309887
 20
202.436244444881
 30
0.0
 40
4.4194173824158813
 50
225.0000000000004
 51
315.0
  0
ARC
  5
2B8
  8
DATA
  6
CONTINUOUS
 62
     7
 10
36.136771710310001
 20
196.18624444488111
 30
0.0
 40
4.4194173824158209
 50
44.99999999999973
 51
135.00027502018179
  0
ARC
  5
2B9
  8
DATA
  6
CONTINUOUS
 62
     7
 10
42.386771710309887
 20
205.0933978218292
 30
0.0
 40
4.4194173824158813
 50
225.0000000000004
 51
315.0
  0
ARC
  5
2BA
  8
DATA
  6
CONTINUOUS
 62
     7
 10
36.136771710310001
 20
198.8433878218292
 30
0.0
 40
4.4194244534893423
 50
45.000091673100947
 51
135.00009167309989
  0
TEXT
  5
2BB
  8
DATA
 62
     7
 10
-147.83013546328991
 20
203.7620591812605
 30
0.0
 40
8.1442057291666661
  1
ウインドスクリーン
 41
0.7
 11
-147.83013546328991
 21
211.90626491042721
 31
0.0
 73
     3
  0
LINE
  5
2BD
  8
DATA
  6
CONTINUOUS
 62
     7
 10
72.620647627224585
 20
-40.916240467568123
 30
0.0
 11
43.247825706463047
 21
-57.874647110378717
 31
0.0
  0
LINE
  5
2BE
  8
DATA
  6
CONTINUOUS
 62
     7
 10
75.620647627224614
 20
-46.112392890274741
 30
0.0
 11
46.380155316097088
 21
-63.300001140317278
 31
0.0
  0
POLYLINE
  5
2BF
  8
DATA
  6
CONTINUOUS
 62
     7
 66
     1
 10
0.0
 20
0.0
 30
0.0
  0
VERTEX
  5
B12
  8
DATA
  6
CONTINUOUS
 62
     7
 10
21.500000000000011
 20
-107.6349652880771
 30
0.0
  0
VERTEX
  5
B13
  8
DATA
  6
CONTINUOUS
 62
     7
 10
23.962127789688768
 20
-107.6349652880771
 30
0.0
  0
VERTEX
  5
B14
  8
DATA
  6
CONTINUOUS
 62
     7
 10
23.962127789688768
 20
-112.6349652880771
 30
0.0
  0
VERTEX
  5
B15
  8
DATA
  6
CONTINUOUS
 62
     7
 10
21.500000000000011
 20
-112.6349652880771
 30
0.0
  0
SEQEND
  5
B16
  8
DATA
  6
CONTINUOUS
 62
     7
  0
POLYLINE
  5
2C6
  8
DATA
  6
CONTINUOUS
 62
     7
 66
     1
 10
0.0
 20
0.0
 30
0.0
  0
VERTEX
  5
B17
  8
DATA
  6
CONTINUOUS
 62
     7
 10
16.649999999999999
 20
-112.6349652880771
 30
0.0
  0
VERTEX
  5
B18
  8
DATA
  6
CONTINUOUS
 62
     7
 10
10.962127789688889
 20
-112.6349652880771
 30
0.0
  0
VERTEX
  5
B19
  8
DATA
  6
CONTINUOUS
 62
     7
 10
10.962127789688889
 20
-107.6349652880771
 30
0.0
  0
VERTEX
  5
B1A
  8
DATA
  6
CONTINUOUS
 62
     7
 10
16.649999999999999
 20
-107.6349652880771
 30
0.0
  0
SEQEND
  5
B1B
  8
DATA
  6
CONTINUOUS
 62
     7
  0
LINE
  5
2CD
  8
DATA
  6
CONTINUOUS
 62
     7
 10
21.500000000000011
 20
-112.6349652880771
 30
0.0
 11
21.500000000000011
 21
-107.6349652880771
 31
0.0
  0
LINE
  5
2CE
  8
DATA
  6
CONTINUOUS
 62
     7
 10
16.649999999999999
 20
-112.6349652880771
 30
0.0
 11
16.649999999999999
 21
-107.6349652880771
 31
0.0
  0
LINE
  5
2CF
  8
DATA
  6
CONTINUOUS
 62
     7
 10
15.250000000000011
 20
-112.6349652880771
 30
0.0
 11
15.250000000000011
 21
-107.6349652880771
 31
0.0
  0
POLYLINE
  5
2D0
  8
DATA
  6
CONTINUOUS
 62
     7
 66
     1
 10
0.0
 20
0.0
 30
0.0
  0
VERTEX
  5
B1C
  8
DATA
  6
CONTINUOUS
 62
     7
 10
46.087820654982771
 20
-62.793662654453811
 30
0.0
  0
VERTEX
  5
B1D
  8
DATA
  6
CONTINUOUS
 62
     7
 10
47.318884549827139
 20
-64.925927867687932
 30
0.0
  0
VERTEX
  5
B1E
  8
DATA
  6
CONTINUOUS
 62
     7
 10
42.988757530904962
 20
-67.425927867687932
 30
0.0
  0
VERTEX
  5
B1F
  8
DATA
  6
CONTINUOUS
 62
     7
 10
41.757693636060573
 20
-65.293662654453811
 30
0.0
  0
SEQEND
  5
B20
  8
DATA
  6
CONTINUOUS
 62
     7
  0
POLYLINE
  5
2D7
  8
DATA
  6
CONTINUOUS
 62
     7
 66
     1
 10
0.0
 20
0.0
 30
0.0
  0
VERTEX
  5
B21
  8
DATA
  6
CONTINUOUS
 62
     7
 10
39.332693636060583
 20
-61.093439446099303
 30
0.0
  0
VERTEX
  5
B22
  8
DATA
  6
CONTINUOUS
 62
     7
 10
36.488757530904977
 20
-56.167597618490319
 30
0.0
  0
VERTEX
  5
B23
  8
DATA
  6
CONTINUOUS
 62
     7
 10
40.81888454982721
 20
-53.667597618490319
 30
0.0
  0
VERTEX
  5
B24
  8
DATA
  6
CONTINUOUS
 62
     7
 10
43.662820654982767
 20
-58.593439446099303
 30
0.0
  0
SEQEND
  5
B25
  8
DATA
  6
CONTINUOUS
 62
     7
  0
LINE
  5
2DE
  8
DATA
  6
CONTINUOUS
 62
     7
 10
41.757693636060573
 20
-65.293662654453811
 30
0.0
 11
46.087820654982771
 21
-62.793662654453811
 31
0.0
  0
LINE
  5
2DF
  8
DATA
  6
CONTINUOUS
 62
     7
 10
39.332693636060583
 20
-61.093439446099303
 30
0.0
 11
43.662820654982767
 21
-58.593439446099303
 31
0.0
  0
LINE
  5
2E0
  8
DATA
  6
CONTINUOUS
 62
     7
 10
38.632693636060573
 20
-59.881003880801067
 30
0.0
 11
42.962820654982771
 21
-57.381003880801067
 31
0.0
  0
POLYLINE
  5
2E1
  8
DATA
  6
CONTINUOUS
 62
     7
 66
     1
 10
0.0
 20
0.0
 30
0.0
 70
   128
  0
VERTEX
  5
B26
  8
DATA
  6
CONTINUOUS
 62
     7
 10
60.198028231183741
 20
-21.287673604508122
 30
0.0
  0
VERTEX
  5
B27
  8
DATA
  6
CONTINUOUS
 62
     7
 10
60.060694087717408
 20
-21.39376503581013
 30
0.0
  0
VERTEX
  5
B28
  8
DATA
  6
CONTINUOUS
 62
     7
 10
59.924793992615747
 20
-21.500637780737179
 30
0.0
  0
VERTEX
  5
B29
  8
DATA
  6
CONTINUOUS
 62
     7
 10
59.790327945878722
 20
-21.608291839289191
 30
0.0
  0
VERTEX
  5
B2A
  8
DATA
  6
CONTINUOUS
 62
     7
 10
59.657295947506341
 20
-21.71672721146626
 30
0.0
  0
VERTEX
  5
B2B
  8
DATA
  6
CONTINUOUS
 62
     7
 10
59.525697997498582
 20
-21.82594389726836
 30
0.0
  0
VERTEX
  5
B2C
  8
DATA
  6
CONTINUOUS
 62
     7
 10
59.39553409585546
 20
-21.93594189669545
 30
0.0
  0
VERTEX
  5
B2D
  8
DATA
  6
CONTINUOUS
 62
     7
 10
59.266804242577003
 20
-22.046721209747549
 30
0.0
  0
VERTEX
  5
B2E
  8
DATA
  6
CONTINUOUS
 62
     7
 10
59.139508437663167
 20
-22.158281836424671
 30
0.0
  0
VERTEX
  5
B2F
  8
DATA
  6
CONTINUOUS
 62
     7
 10
59.013646681113997
 20
-22.270623776726811
 30
0.0
  0
VERTEX
  5
B30
  8
DATA
  6
CONTINUOUS
 62
     7
 10
58.889218972929449
 20
-22.383747030653979
 30
0.0
  0
VERTEX
  5
B31
  8
DATA
  6
CONTINUOUS
 62
     7
 10
58.766225313109551
 20
-22.497651598206179
 30
0.0
  0
VERTEX
  5
B32
  8
DATA
  6
CONTINUOUS
 62
     7
 10
58.64466570165429
 20
-22.61233747938337
 30
0.0
  0
VERTEX
  5
B33
  8
DATA
  6
CONTINUOUS
 62
     7
 10
58.524540138563673
 20
-22.727804674185592
 30
0.0
  0
VERTEX
  5
B34
  8
DATA
  6
CONTINUOUS
 62
     7
 10
58.405848623837699
 20
-22.844053182612871
 30
0.0
  0
VERTEX
  5
B35
  8
DATA
  6
CONTINUOUS
 62
     7
 10
58.288591157476361
 20
-22.96108300466511
 30
0.0
  0
VERTEX
  5
B36
  8
DATA
  6
CONTINUOUS
 62
     7
 10
58.172767739479667
 20
-23.078894140342388
 30
0.0
  0
VERTEX
  5
B37
  8
DATA
  6
CONTINUOUS
 62
     7
 10
58.058378369847617
 20
-23.197486589644651
 30
0.0
  0
VERTEX
  5
B38
  8
DATA
  6
CONTINUOUS
 62
     7
 10
57.94542304858021
 20
-23.316860352571979
 30
0.0
  0
VERTEX
  5
B39
  8
DATA
  6
CONTINUOUS
 62
     7
 10
57.833901775677433
 20
-23.43701542912433
 30
0.0
  0
VERTEX
  5
B3A
  8
DATA
  6
CONTINUOUS
 62
     7
 10
57.72381455113932
 20
-23.557951819301682
 30
0.0
  0
VERTEX
  5
B3B
  8
DATA
  6
CONTINUOUS
 62
     7
 10
57.61516137496583
 20
-23.679669523104049
 30
0.0
  0
VERTEX
  5
B3C
  8
DATA
  6
CONTINUOUS
 62
     7
 10
57.50794224715699
 20
-23.802168540531451
 30
0.0
  0
VERTEX
  5
B3D
  8
DATA
  6
CONTINUOUS
 62
     7
 10
57.402157167712787
 20
-23.92544887158385
 30
0.0
  0
VERTEX
  5
B3E
  8
DATA
  6
CONTINUOUS
 62
     7
 10
57.297806136633213
 20
-24.049510516261279
 30
0.0
  0
VERTEX
  5
B3F
  8
DATA
  6
CONTINUOUS
 62
     7
 10
57.194889153918311
 20
-24.174353474563731
 30
0.0
  0
VERTEX
  5
B40
  8
DATA
  6
CONTINUOUS
 62
     7
 10
57.093406219568031
 20
-24.29997774649118
 30
0.0
  0
VERTEX
  5
B41
  8
DATA
  6
CONTINUOUS
 62
     7
 10
56.993357333582402
 20
-24.42638333204366
 30
0.0
  0
VERTEX
  5
B42
  8
DATA
  6
CONTINUOUS
 62
     7
 10
56.894742495961403
 20
-24.553570231221158
 30
0.0
  0
VERTEX
  5
B43
  8
DATA
  6
CONTINUOUS
 62
     7
 10
56.797561706705068
 20
-24.681538444023658
 30
0.0
  0
VERTEX
  5
B44
  8
DATA
  6
CONTINUOUS
 62
     7
 10
56.701814965813341
 20
-24.81028797045122
 30
0.0
  0
VERTEX
  5
B45
  8
DATA
  6
CONTINUOUS
 62
     7
 10
56.607502273286279
 20
-24.93981881050377
 30
0.0
  0
VERTEX
  5
B46
  8
DATA
  6
CONTINUOUS
 62
     7
 10
56.51462362912384
 20
-25.070130964181342
 30
0.0
  0
VERTEX
  5
B47
  8
DATA
  6
CONTINUOUS
 62
     7
 10
56.423179033326043
 20
-25.201224431483919
 30
0.0
  0
VERTEX
  5
B48
  8
DATA
  6
CONTINUOUS
 62
     7
 10
56.333168485892898
 20
-25.333099212411561
 30
0.0
  0
VERTEX
  5
B49
  8
DATA
  6
CONTINUOUS
 62
     7
 10
56.244591986824403
 20
-25.465755306964191
 30
0.0
  0
VERTEX
  5
B4A
  8
DATA
  6
CONTINUOUS
 62
     7
 10
56.157449536120538
 20
-25.599192715141839
 30
0.0
  0
VERTEX
  5
B4B
  8
DATA
  6
CONTINUOUS
 62
     7
 10
56.07174113378133
 20
-25.73341143694449
 30
0.0
  0
VERTEX
  5
B4C
  8
DATA
  6
CONTINUOUS
 62
     7
 10
55.987466779806738
 20
-25.86841147237217
 30
0.0
  0
VERTEX
  5
B4D
  8
DATA
  6
CONTINUOUS
 62
     7
 10
55.90462647419681
 20
-26.004192821424851
 30
0.0
  0
VERTEX
  5
B4E
  8
DATA
  6
CONTINUOUS
 62
     7
 10
55.823220216951512
 20
-26.140755484102591
 30
0.0
  0
VERTEX
  5
B4F
  8
DATA
  6
CONTINUOUS
 62
     7
 10
55.743248008070857
 20
-26.278099460405318
 30
0.0
  0
VERTEX
  5
B50
  8
DATA
  6
CONTINUOUS
 62
     7
 10
55.664709847554853
 20
-26.416224750333068
 30
0.0
  0
VERTEX
  5
B51
  8
DATA
  6
CONTINUOUS
 62
     7
 10
55.587605735403471
 20
-26.55513135388583
 30
0.0
  0
VERTEX
  5
B52
  8
DATA
  6
CONTINUOUS
 62
     7
 10
55.511935671616747
 20
-26.694819271063611
 30
0.0
  0
VERTEX
  5
B53
  8
DATA
  6
CONTINUOUS
 62
     7
 10
55.437699656194638
 20
-26.83528850186639
 30
0.0
  0
VERTEX
  5
B54
  8
DATA
  6
CONTINUOUS
 62
     7
 10
55.364897689137209
 20
-26.976539046294221
 30
0.0
  0
VERTEX
  5
B55
  8
DATA
  6
CONTINUOUS
 62
     7
 10
55.293529770444401
 20
-27.118570904347081
 30
0.0
  0
VERTEX
  5
B56
  8
DATA
  6
CONTINUOUS
 62
     7
 10
55.223595900116251
 20
-27.261384076024932
 30
0.0
  0
VERTEX
  5
B57
  8
DATA
  6
CONTINUOUS
 62
     7
 10
55.155096078152717
 20
-27.40497856132782
 30
0.0
  0
VERTEX
  5
B58
  8
DATA
  6
CONTINUOUS
 62
     7
 10
55.08803030455384
 20
-27.549354360255741
 30
0.0
  0
VERTEX
  5
B59
  8
DATA
  6
CONTINUOUS
 62
     7
 10
55.022398579319599
 20
-27.694511472808639
 30
0.0
  0
VERTEX
  5
B5A
  8
DATA
  6
CONTINUOUS
 62
     7
 10
54.958200902450002
 20
-27.840449898986549
 30
0.0
  0
VERTEX
  5
B5B
  8
DATA
  6
CONTINUOUS
 62
     7
 10
54.895437273945042
 20
-27.987169638789481
 30
0.0
  0
VERTEX
  5
B5C
  8
DATA
  6
CONTINUOUS
 62
     7
 10
54.834107693804732
 20
-28.134670692217469
 30
0.0
  0
VERTEX
  5
B5D
  8
DATA
  6
CONTINUOUS
 62
     7
 10
54.774212162029059
 20
-28.282953059270419
 30
0.0
  0
VERTEX
  5
B5E
  8
DATA
  6
CONTINUOUS
 62
     7
 10
54.715750678618022
 20
-28.432016739948459
 30
0.0
  0
VERTEX
  5
B5F
  8
DATA
  6
CONTINUOUS
 62
     7
 10
54.658723243571643
 20
-28.581861734251511
 30
0.0
  0
VERTEX
  5
B60
  8
DATA
  6
CONTINUOUS
 62
     7
 10
54.603129856889893
 20
-28.732488042179568
 30
0.0
  0
VERTEX
  5
B61
  8
DATA
  6
CONTINUOUS
 62
     7
 10
54.548970518572787
 20
-28.883895663732599
 30
0.0
  0
VERTEX
  5
B62
  8
DATA
  6
CONTINUOUS
 62
     7
 10
54.49624522862031
 20
-29.036084598910691
 30
0.0
  0
VERTEX
  5
B63
  8
DATA
  6
CONTINUOUS
 62
     7
 10
54.444953987032491
 20
-29.189054847713809
 30
0.0
  0
VERTEX
  5
B64
  8
DATA
  6
CONTINUOUS
 62
     7
 10
54.395096793809323
 20
-29.342806410141922
 30
0.0
  0
VERTEX
  5
B65
  8
DATA
  6
CONTINUOUS
 62
     7
 10
54.34667364895077
 20
-29.497339286195029
 30
0.0
  0
VERTEX
  5
B66
  8
DATA
  6
CONTINUOUS
 62
     7
 10
54.299684552456881
 20
-29.652653475873169
 30
0.0
  0
VERTEX
  5
B67
  8
DATA
  6
CONTINUOUS
 62
     7
 10
54.299684552456881
 20
-29.652653475873169
 30
0.0
  0
VERTEX
  5
B68
  8
DATA
  6
CONTINUOUS
 62
     7
 10
54.253599463196132
 20
-29.807977415621281
 30
0.0
  0
VERTEX
  5
B69
  8
DATA
  6
CONTINUOUS
 62
     7
 10
54.207888340037037
 20
-29.962539541884389
 30
0.0
  0
VERTEX
  5
B6A
  8
DATA
  6
CONTINUOUS
 62
     7
 10
54.162551182979612
 20
-30.116339854662439
 30
0.0
  0
VERTEX
  5
B6B
  8
DATA
  6
CONTINUOUS
 62
     7
 10
54.117587992023822
 20
-30.26937835395546
 30
0.0
  0
VERTEX
  5
B6C
  8
DATA
  6
CONTINUOUS
 62
     7
 10
54.072998767169693
 20
-30.42165503976344
 30
0.0
  0
VERTEX
  5
B6D
  8
DATA
  6
CONTINUOUS
 62
     7
 10
54.028783508417213
 20
-30.573169912086399
 30
0.0
  0
VERTEX
  5
B6E
  8
DATA
  6
CONTINUOUS
 62
     7
 10
53.984942215766402
 20
-30.72392297092432
 30
0.0
  0
VERTEX
  5
B6F
  8
DATA
  6
CONTINUOUS
 62
     7
 10
53.941474889217247
 20
-30.873914216277171
 30
0.0
  0
VERTEX
  5
B70
  8
DATA
  6
CONTINUOUS
 62
     7
 10
53.898381528769761
 20
-31.02314364814498
 30
0.0
  0
VERTEX
  5
B71
  8
DATA
  6
CONTINUOUS
 62
     7
 10
53.855662134423902
 20
-31.171611266527769
 30
0.0
  0
VERTEX
  5
B72
  8
DATA
  6
CONTINUOUS
 62
     7
 10
53.813316706179712
 20
-31.319317071425541
 30
0.0
  0
VERTEX
  5
B73
  8
DATA
  6
CONTINUOUS
 62
     7
 10
53.771345244037192
 20
-31.46626106283821
 30
0.0
  0
VERTEX
  5
B74
  8
DATA
  6
CONTINUOUS
 62
     7
 10
53.729747747996313
 20
-31.612443240765892
 30
0.0
  0
VERTEX
  5
B75
  8
DATA
  6
CONTINUOUS
 62
     7
 10
53.688524218057083
 20
-31.75786360520852
 30
0.0
  0
VERTEX
  5
B76
  8
DATA
  6
CONTINUOUS
 62
     7
 10
53.647674654219522
 20
-31.902522156166128
 30
0.0
  0
VERTEX
  5
B77
  8
DATA
  6
CONTINUOUS
 62
     7
 10
53.607199056483623
 20
-32.04641889363868
 30
0.0
  0
VERTEX
  5
B78
  8
DATA
  6
CONTINUOUS
 62
     7
 10
53.567097424849372
 20
-32.189553817626177
 30
0.0
  0
VERTEX
  5
B79
  8
DATA
  6
CONTINUOUS
 62
     7
 10
53.52736975931677
 20
-32.331926928128667
 30
0.0
  0
VERTEX
  5
B7A
  8
DATA
  6
CONTINUOUS
 62
     7
 10
53.48801605988583
 20
-32.473538225146108
 30
0.0
  0
VERTEX
  5
B7B
  8
DATA
  6
CONTINUOUS
 62
     7
 10
53.449036326556552
 20
-32.614387708678493
 30
0.0
  0
VERTEX
  5
B7C
  8
DATA
  6
CONTINUOUS
 62
     7
 10
53.410430559328923
 20
-32.754475378725829
 30
0.0
  0
VERTEX
  5
B7D
  8
DATA
  6
CONTINUOUS
 62
     7
 10
53.372198758202927
 20
-32.893801235288151
 30
0.0
  0
VERTEX
  5
B7E
  8
DATA
  6
CONTINUOUS
 62
     7
 10
53.334340923178623
 20
-33.032365278365432
 30
0.0
  0
VERTEX
  5
B7F
  8
DATA
  6
CONTINUOUS
 62
     7
 10
53.296857054255973
 20
-33.170167507957643
 30
0.0
  0
VERTEX
  5
B80
  8
DATA
  6
CONTINUOUS
 62
     7
 10
53.259747151434958
 20
-33.307207924064812
 30
0.0
  0
VERTEX
  5
B81
  8
DATA
  6
CONTINUOUS
 62
     7
 10
53.223011214715612
 20
-33.443486526686968
 30
0.0
  0
VERTEX
  5
B82
  8
DATA
  6
CONTINUOUS
 62
     7
 10
53.186649244097921
 20
-33.579003315824082
 30
0.0
  0
VERTEX
  5
B83
  8
DATA
  6
CONTINUOUS
 62
     7
 10
53.150661239581893
 20
-33.713758291476147
 30
0.0
  0
VERTEX
  5
B84
  8
DATA
  6
CONTINUOUS
 62
     7
 10
53.115047201167499
 20
-33.847751453643191
 30
0.0
  0
VERTEX
  5
B85
  8
DATA
  6
CONTINUOUS
 62
     7
 10
53.079807128854782
 20
-33.980982802325173
 30
0.0
  0
VERTEX
  5
B86
  8
DATA
  6
CONTINUOUS
 62
     7
 10
53.044941022643712
 20
-34.113452337522119
 30
0.0
  0
VERTEX
  5
B87
  8
DATA
  6
CONTINUOUS
 62
     7
 10
53.010448882534313
 20
-34.245160059234053
 30
0.0
  0
VERTEX
  5
B88
  8
DATA
  6
CONTINUOUS
 62
     7
 10
52.97633070852654
 20
-34.376105967460951
 30
0.0
  0
VERTEX
  5
B89
  8
DATA
  6
CONTINUOUS
 62
     7
 10
52.94258650062045
 20
-34.506290062202773
 30
0.0
  0
VERTEX
  5
B8A
  8
DATA
  6
CONTINUOUS
 62
     7
 10
52.909216258816002
 20
-34.635712343459552
 30
0.0
  0
VERTEX
  5
B8B
  8
DATA
  6
CONTINUOUS
 62
     7
 10
52.876219983113231
 20
-34.764372811231311
 30
0.0
  0
VERTEX
  5
B8C
  8
DATA
  6
CONTINUOUS
 62
     7
 10
52.843597673512093
 20
-34.892271465518043
 30
0.0
  0
VERTEX
  5
B8D
  8
DATA
  6
CONTINUOUS
 62
     7
 10
52.811349330012611
 20
-35.01940830631969
 30
0.0
  0
VERTEX
  5
B8E
  8
DATA
  6
CONTINUOUS
 62
     7
 10
52.779474952614791
 20
-35.145783333636317
 30
0.0
  0
VERTEX
  5
B8F
  8
DATA
  6
CONTINUOUS
 62
     7
 10
52.747974541318641
 20
-35.27139654746793
 30
0.0
  0
VERTEX
  5
B90
  8
DATA
  6
CONTINUOUS
 62
     7
 10
52.716848096124131
 20
-35.396247947814487
 30
0.0
  0
VERTEX
  5
B91
  8
DATA
  6
CONTINUOUS
 62
     7
 10
52.68609561703127
 20
-35.52033753467601
 30
0.0
  0
VERTEX
  5
B92
  8
DATA
  6
CONTINUOUS
 62
     7
 10
52.655717104040079
 20
-35.643665308052512
 30
0.0
  0
VERTEX
  5
B93
  8
DATA
  6
CONTINUOUS
 62
     7
 10
52.625712557150528
 20
-35.766231267943937
 30
0.0
  0
VERTEX
  5
B94
  8
DATA
  6
CONTINUOUS
 62
     7
 10
52.596081976362647
 20
-35.888035414350327
 30
0.0
  0
VERTEX
  5
B95
  8
DATA
  6
CONTINUOUS
 62
     7
 10
52.566825361676429
 20
-36.009077747271711
 30
0.0
  0
VERTEX
  5
B96
  8
DATA
  6
CONTINUOUS
 62
     7
 10
52.537942713091851
 20
-36.129358266708039
 30
0.0
  0
VERTEX
  5
B97
  8
DATA
  6
CONTINUOUS
 62
     7
 10
52.509434030608944
 20
-36.248876972659332
 30
0.0
  0
VERTEX
  5
B98
  8
DATA
  6
CONTINUOUS
 62
     7
 10
52.48129931422767
 20
-36.36763386512559
 30
0.0
  0
VERTEX
  5
B99
  8
DATA
  6
CONTINUOUS
 62
     7
 10
52.453538563948101
 20
-36.485628944106793
 30
0.0
  0
VERTEX
  5
B9A
  8
DATA
  6
CONTINUOUS
 62
     7
 10
52.426151779770137
 20
-36.602862209602961
 30
0.0
  0
VERTEX
  5
B9B
  8
DATA
  6
CONTINUOUS
 62
     7
 10
52.399138961693851
 20
-36.719333661614101
 30
0.0
  0
VERTEX
  5
B9C
  8
DATA
  6
CONTINUOUS
 62
     7
 10
52.372500109719212
 20
-36.835043300140171
 30
0.0
  0
VERTEX
  5
B9D
  8
DATA
  6
CONTINUOUS
 62
     7
 10
52.346235223846243
 20
-36.949991125181221
 30
0.0
  0
VERTEX
  5
B9E
  8
DATA
  6
CONTINUOUS
 62
     7
 10
52.320344304074929
 20
-37.064177136737207
 30
0.0
  0
VERTEX
  5
B9F
  8
DATA
  6
CONTINUOUS
 62
     7
 10
52.294827350405257
 20
-37.17760133480818
 30
0.0
  0
VERTEX
  5
BA0
  8
DATA
  6
CONTINUOUS
 62
     7
 10
52.269684362837239
 20
-37.29026371939409
 30
0.0
  0
VERTEX
  5
BA1
  8
DATA
  6
CONTINUOUS
 62
     7
 10
52.244915341370877
 20
-37.402164290494987
 30
0.0
  0
VERTEX
  5
BA2
  8
DATA
  6
CONTINUOUS
 62
     7
 10
52.220520286006177
 20
-37.513303048110849
 30
0.0
  0
VERTEX
  5
BA3
  8
DATA
  6
CONTINUOUS
 62
     7
 10
52.19649919674314
 20
-37.623679992241648
 30
0.0
  0
VERTEX
  5
BA4
  8
DATA
  6
CONTINUOUS
 62
     7
 10
52.172852073581772
 20
-37.733295122887426
 30
0.0
  0
VERTEX
  5
BA5
  8
DATA
  6
CONTINUOUS
 62
     7
 10
52.149578916522039
 20
-37.842148440048163
 30
0.0
  0
VERTEX
  5
BA6
  8
DATA
  6
CONTINUOUS
 62
     7
 10
52.12667972556396
 20
-37.95023994372383
 30
0.0
  0
VERTEX
  5
BA7
  8
DATA
  6
CONTINUOUS
 62
     7
 10
52.104154500707537
 20
-38.057569633914483
 30
0.0
  0
VERTEX
  5
BA8
  8
DATA
  6
CONTINUOUS
 62
     7
 10
52.104154500707537
 20
-38.057569633914483
 30
0.0
  0
VERTEX
  5
BA9
  8
DATA
  6
CONTINUOUS
 62
     7
 10
52.08174146568161
 20
-38.164432406162689
 30
0.0
  0
VERTEX
  5
BAA
  8
DATA
  6
CONTINUOUS
 62
     7
 10
52.05917884421504
 20
-38.271123156011043
 30
0.0
  0
VERTEX
  5
BAB
  8
DATA
  6
CONTINUOUS
 62
     7
 10
52.036466636307793
 20
-38.377641883459553
 30
0.0
  0
VERTEX
  5
BAC
  8
DATA
  6
CONTINUOUS
 62
     7
 10
52.013604841959889
 20
-38.483988588508211
 30
0.0
  0
VERTEX
  5
BAD
  8
DATA
  6
CONTINUOUS
 62
     7
 10
51.990593461171322
 20
-38.590163271157003
 30
0.0
  0
VERTEX
  5
BAE
  8
DATA
  6
CONTINUOUS
 62
     7
 10
51.967432493942077
 20
-38.696165931405972
 30
0.0
  0
VERTEX
  5
BAF
  8
DATA
  6
CONTINUOUS
 62
     7
 10
51.944121940272183
 20
-38.801996569255103
 30
0.0
  0
VERTEX
  5
BB0
  8
DATA
  6
CONTINUOUS
 62
     7
 10
51.920661800161632
 20
-38.907655184704367
 30
0.0
  0
VERTEX
  5
BB1
  8
DATA
  6
CONTINUOUS
 62
     7
 10
51.897052073610418
 20
-39.013141777753781
 30
0.0
  0
VERTEX
  5
BB2
  8
DATA
  6
CONTINUOUS
 62
     7
 10
51.873292760618533
 20
-39.118456348403363
 30
0.0
  0
VERTEX
  5
BB3
  8
DATA
  6
CONTINUOUS
 62
     7
 10
51.849383861185977
 20
-39.223598896653101
 30
0.0
  0
VERTEX
  5
BB4
  8
DATA
  6
CONTINUOUS
 62
     7
 10
51.825325375312779
 20
-39.328569422503001
 30
0.0
  0
VERTEX
  5
BB5
  8
DATA
  6
CONTINUOUS
 62
     7
 10
51.801117302998897
 20
-39.433367925953043
 30
0.0
  0
VERTEX
  5
BB6
  8
DATA
  6
CONTINUOUS
 62
     7
 10
51.776759644244379
 20
-39.537994407003218
 30
0.0
  0
VERTEX
  5
BB7
  8
DATA
  6
CONTINUOUS
 62
     7
 10
51.752252399049183
 20
-39.64244886565357
 30
0.0
  0
VERTEX
  5
BB8
  8
DATA
  6
CONTINUOUS
 62
     7
 10
51.727595567413331
 20
-39.746731301904049
 30
0.0
  0
VERTEX
  5
BB9
  8
DATA
  6
CONTINUOUS
 62
     7
 10
51.702789149336823
 20
-39.850841715754711
 30
0.0
  0
VERTEX
  5
BBA
  8
DATA
  6
CONTINUOUS
 62
     7
 10
51.67783314481963
 20
-39.954780107205522
 30
0.0
  0
VERTEX
  5
BBB
  8
DATA
  6
CONTINUOUS
 62
     7
 10
51.65272755386178
 20
-40.058546476256453
 30
0.0
  0
VERTEX
  5
BBC
  8
DATA
  6
CONTINUOUS
 62
     7
 10
51.627472376463281
 20
-40.16214082290756
 30
0.0
  0
VERTEX
  5
BBD
  8
DATA
  6
CONTINUOUS
 62
     7
 10
51.602067612624111
 20
-40.265563147158822
 30
0.0
  0
VERTEX
  5
BBE
  8
DATA
  6
CONTINUOUS
 62
     7
 10
51.576513262344292
 20
-40.368813449010247
 30
0.0
  0
VERTEX
  5
BBF
  8
DATA
  6
CONTINUOUS
 62
     7
 10
51.550809325623781
 20
-40.471891728461792
 30
0.0
  0
VERTEX
  5
BC0
  8
DATA
  6
CONTINUOUS
 62
     7
 10
51.524955802462628
 20
-40.574797985513491
 30
0.0
  0
VERTEX
  5
BC1
  8
DATA
  6
CONTINUOUS
 62
     7
 10
51.498952692860811
 20
-40.677532220165347
 30
0.0
  0
VERTEX
  5
BC2
  8
DATA
  6
CONTINUOUS
 62
     7
 10
51.472799996818317
 20
-40.780094432417371
 30
0.0
  0
VERTEX
  5
BC3
  8
DATA
  6
CONTINUOUS
 62
     7
 10
51.446497714335187
 20
-40.882484622269523
 30
0.0
  0
VERTEX
  5
BC4
  8
DATA
  6
CONTINUOUS
 62
     7
 10
51.420045845411387
 20
-40.984702789721858
 30
0.0
  0
VERTEX
  5
BC5
  8
DATA
  6
CONTINUOUS
 62
     7
 10
51.393444390046902
 20
-41.086748934774327
 30
0.0
  0
VERTEX
  5
BC6
  8
DATA
  6
CONTINUOUS
 62
     7
 10
51.366693348241768
 20
-41.188623057426952
 30
0.0
  0
VERTEX
  5
BC7
  8
DATA
  6
CONTINUOUS
 62
     7
 10
51.339792719995977
 20
-41.29032515767971
 30
0.0
  0
VERTEX
  5
BC8
  8
DATA
  6
CONTINUOUS
 62
     7
 10
51.312742505309529
 20
-41.391855235532653
 30
0.0
  0
VERTEX
  5
BC9
  8
DATA
  6
CONTINUOUS
 62
     7
 10
51.285542704182397
 20
-41.49321329098575
 30
0.0
  0
VERTEX
  5
BCA
  8
DATA
  6
CONTINUOUS
 62
     7
 10
51.258193316614637
 20
-41.594399324038967
 30
0.0
  0
VERTEX
  5
BCB
  8
DATA
  6
CONTINUOUS
 62
     7
 10
51.230694342606178
 20
-41.695413334692368
 30
0.0
  0
VERTEX
  5
BCC
  8
DATA
  6
CONTINUOUS
 62
     7
 10
51.203045782157091
 20
-41.796255322945903
 30
0.0
  0
VERTEX
  5
BCD
  8
DATA
  6
CONTINUOUS
 62
     7
 10
51.175247635267318
 20
-41.896925288799601
 30
0.0
  0
VERTEX
  5
BCE
  8
DATA
  6
CONTINUOUS
 62
     7
 10
51.147299901936897
 20
-41.997423232253432
 30
0.0
  0
VERTEX
  5
BCF
  8
DATA
  6
CONTINUOUS
 62
     7
 10
51.119202582165798
 20
-42.097749153307397
 30
0.0
  0
VERTEX
  5
BD0
  8
DATA
  6
CONTINUOUS
 62
     7
 10
51.090955675954028
 20
-42.197903051961561
 30
0.0
  0
VERTEX
  5
BD1
  8
DATA
  6
CONTINUOUS
 62
     7
 10
51.06255918330163
 20
-42.297884928215858
 30
0.0
  0
VERTEX
  5
BD2
  8
DATA
  6
CONTINUOUS
 62
     7
 10
51.034013104208533
 20
-42.397694782070317
 30
0.0
  0
VERTEX
  5
BD3
  8
DATA
  6
CONTINUOUS
 62
     7
 10
51.005317438674787
 20
-42.497332613524918
 30
0.0
  0
VERTEX
  5
BD4
  8
DATA
  6
CONTINUOUS
 62
     7
 10
50.976472186700398
 20
-42.59679842257966
 30
0.0
  0
VERTEX
  5
BD5
  8
DATA
  6
CONTINUOUS
 62
     7
 10
50.947477348285332
 20
-42.696092209234557
 30
0.0
  0
VERTEX
  5
BD6
  8
DATA
  6
CONTINUOUS
 62
     7
 10
50.918332923429602
 20
-42.795213973489638
 30
0.0
  0
VERTEX
  5
BD7
  8
DATA
  6
CONTINUOUS
 62
     7
 10
50.889038912133209
 20
-42.894163715344853
 30
0.0
  0
VERTEX
  5
BD8
  8
DATA
  6
CONTINUOUS
 62
     7
 10
50.859595314396152
 20
-42.992941434800223
 30
0.0
  0
VERTEX
  5
BD9
  8
DATA
  6
CONTINUOUS
 62
     7
 10
50.830002130218432
 20
-43.091547131855741
 30
0.0
  0
VERTEX
  5
BDA
  8
DATA
  6
CONTINUOUS
 62
     7
 10
50.800259359600069
 20
-43.1899808065114
 30
0.0
  0
VERTEX
  5
BDB
  8
DATA
  6
CONTINUOUS
 62
     7
 10
50.770367002541029
 20
-43.288242458767222
 30
0.0
  0
VERTEX
  5
BDC
  8
DATA
  6
CONTINUOUS
 62
     7
 10
50.740325059041297
 20
-43.386332088623213
 30
0.0
  0
VERTEX
  5
BDD
  8
DATA
  6
CONTINUOUS
 62
     7
 10
50.710133529100929
 20
-43.484249696079353
 30
0.0
  0
VERTEX
  5
BDE
  8
DATA
  6
CONTINUOUS
 62
     7
 10
50.679792412719912
 20
-43.581995281135647
 30
0.0
  0
VERTEX
  5
BDF
  8
DATA
  6
CONTINUOUS
 62
     7
 10
50.649301709898211
 20
-43.679568843792069
 30
0.0
  0
VERTEX
  5
BE0
  8
DATA
  6
CONTINUOUS
 62
     7
 10
50.618661420635853
 20
-43.77697038404866
 30
0.0
  0
VERTEX
  5
BE1
  8
DATA
  6
CONTINUOUS
 62
     7
 10
50.587871544932852
 20
-43.874199901905399
 30
0.0
  0
VERTEX
  5
BE2
  8
DATA
  6
CONTINUOUS
 62
     7
 10
50.556932082789167
 20
-43.971257397362308
 30
0.0
  0
VERTEX
  5
BE3
  8
DATA
  6
CONTINUOUS
 62
     7
 10
50.52584303420484
 20
-44.068142870419372
 30
0.0
  0
VERTEX
  5
BE4
  8
DATA
  6
CONTINUOUS
 62
     7
 10
50.494604399179842
 20
-44.164856321076542
 30
0.0
  0
VERTEX
  5
BE5
  8
DATA
  6
CONTINUOUS
 62
     7
 10
50.463216177714173
 20
-44.26139774933386
 30
0.0
  0
VERTEX
  5
BE6
  8
DATA
  6
CONTINUOUS
 62
     7
 10
50.431678369807841
 20
-44.357767155191361
 30
0.0
  0
VERTEX
  5
BE7
  8
DATA
  6
CONTINUOUS
 62
     7
 10
50.399990975460838
 20
-44.453964538649011
 30
0.0
  0
VERTEX
  5
BE8
  8
DATA
  6
CONTINUOUS
 62
     7
 10
50.368153994673179
 20
-44.549989899706851
 30
0.0
  0
VERTEX
  5
BE9
  8
DATA
  6
CONTINUOUS
 62
     7
 10
50.368153994673179
 20
-44.549989899706851
 30
0.0
  0
VERTEX
  5
BEA
  8
DATA
  6
CONTINUOUS
 62
     7
 10
50.335430107278569
 20
-44.646002973450372
 30
0.0
  0
VERTEX
  5
BEB
  8
DATA
  6
CONTINUOUS
 62
     7
 10
50.301081993110692
 20
-44.742163494965212
 30
0.0
  0
VERTEX
  5
BEC
  8
DATA
  6
CONTINUOUS
 62
     7
 10
50.265109652169521
 20
-44.838471464251299
 30
0.0
  0
VERTEX
  5
BED
  8
DATA
  6
CONTINUOUS
 62
     7
 10
50.227513084455083
 20
-44.934926881308733
 30
0.0
  0
VERTEX
  5
BEE
  8
DATA
  6
CONTINUOUS
 62
     7
 10
50.188292289967393
 20
-45.031529746137473
 30
0.0
  0
VERTEX
  5
BEF
  8
DATA
  6
CONTINUOUS
 62
     7
 10
50.147447268706401
 20
-45.128280058737488
 30
0.0
  0
VERTEX
  5
BF0
  8
DATA
  6
CONTINUOUS
 62
     7
 10
50.104978020672164
 20
-45.225177819108801
 30
0.0
  0
VERTEX
  5
BF1
  8
DATA
  6
CONTINUOUS
 62
     7
 10
50.060884545864639
 20
-45.322223027251432
 30
0.0
  0
VERTEX
  5
BF2
  8
DATA
  6
CONTINUOUS
 62
     7
 10
50.01516684428384
 20
-45.419415683165333
 30
0.0
  0
VERTEX
  5
BF3
  8
DATA
  6
CONTINUOUS
 62
     7
 10
49.967824915929782
 20
-45.516755786850538
 30
0.0
  0
VERTEX
  5
BF4
  8
DATA
  6
CONTINUOUS
 62
     7
 10
49.918858760802451
 20
-45.614243338307062
 30
0.0
  0
VERTEX
  5
BF5
  8
DATA
  6
CONTINUOUS
 62
     7
 10
49.868268378901853
 20
-45.711878337534863
 30
0.0
  0
VERTEX
  5
BF6
  8
DATA
  6
CONTINUOUS
 62
     7
 10
49.816053770227967
 20
-45.809660784533968
 30
0.0
  0
VERTEX
  5
BF7
  8
DATA
  6
CONTINUOUS
 62
     7
 10
49.762214934780822
 20
-45.90759067930437
 30
0.0
  0
VERTEX
  5
BF8
  8
DATA
  6
CONTINUOUS
 62
     7
 10
49.706751872560403
 20
-46.005668021846077
 30
0.0
  0
VERTEX
  5
BF9
  8
DATA
  6
CONTINUOUS
 62
     7
 10
49.649664583566732
 20
-46.103892812159067
 30
0.0
  0
VERTEX
  5
BFA
  8
DATA
  6
CONTINUOUS
 62
     7
 10
49.590953067799759
 20
-46.202265050243362
 30
0.0
  0
VERTEX
  5
BFB
  8
DATA
  6
CONTINUOUS
 62
     7
 10
49.53061732525952
 20
-46.300784736098947
 30
0.0
  0
VERTEX
  5
BFC
  8
DATA
  6
CONTINUOUS
 62
     7
 10
49.468657355946021
 20
-46.399451869725837
 30
0.0
  0
VERTEX
  5
BFD
  8
DATA
  6
CONTINUOUS
 62
     7
 10
49.405073159859228
 20
-46.498266451124039
 30
0.0
  0
VERTEX
  5
BFE
  8
DATA
  6
CONTINUOUS
 62
     7
 10
49.33986473699921
 20
-46.597228480293523
 30
0.0
  0
VERTEX
  5
BFF
  8
DATA
  6
CONTINUOUS
 62
     7
 10
49.273032087365891
 20
-46.696337957234327
 30
0.0
  0
VERTEX
  5
C00
  8
DATA
  6
CONTINUOUS
 62
     7
 10
49.204575210959291
 20
-46.795594881946393
 30
0.0
  0
VERTEX
  5
C01
  8
DATA
  6
CONTINUOUS
 62
     7
 10
49.134494107779439
 20
-46.894999254429791
 30
0.0
  0
VERTEX
  5
C02
  8
DATA
  6
CONTINUOUS
 62
     7
 10
49.062788777826299
 20
-46.994551074684459
 30
0.0
  0
VERTEX
  5
C03
  8
DATA
  6
CONTINUOUS
 62
     7
 10
48.989459221099906
 20
-47.094250342710438
 30
0.0
  0
VERTEX
  5
C04
  8
DATA
  6
CONTINUOUS
 62
     7
 10
48.914505437600241
 20
-47.194097058507737
 30
0.0
  0
VERTEX
  5
C05
  8
DATA
  6
CONTINUOUS
 62
     7
 10
48.837927427327301
 20
-47.294091222076297
 30
0.0
  0
VERTEX
  5
C06
  8
DATA
  6
CONTINUOUS
 62
     7
 10
48.759725190281067
 20
-47.394232833416183
 30
0.0
  0
VERTEX
  5
C07
  8
DATA
  6
CONTINUOUS
 62
     7
 10
48.679898726461602
 20
-47.494521892527352
 30
0.0
  0
VERTEX
  5
C08
  8
DATA
  6
CONTINUOUS
 62
     7
 10
48.598448035868827
 20
-47.59495839940984
 30
0.0
  0
VERTEX
  5
C09
  8
DATA
  6
CONTINUOUS
 62
     7
 10
48.515373118502822
 20
-47.695542354063598
 30
0.0
  0
VERTEX
  5
C0A
  8
DATA
  6
CONTINUOUS
 62
     7
 10
48.430673974363501
 20
-47.79627375648866
 30
0.0
  0
VERTEX
  5
C0B
  8
DATA
  6
CONTINUOUS
 62
     7
 10
48.344350603450927
 20
-47.897152606685033
 30
0.0
  0
VERTEX
  5
C0C
  8
DATA
  6
CONTINUOUS
 62
     7
 10
48.256403005765087
 20
-47.998178904652718
 30
0.0
  0
VERTEX
  5
C0D
  8
DATA
  6
CONTINUOUS
 62
     7
 10
48.16683118130598
 20
-48.099352650391673
 30
0.0
  0
VERTEX
  5
C0E
  8
DATA
  6
CONTINUOUS
 62
     7
 10
48.075635130073607
 20
-48.20067384390191
 30
0.0
  0
VERTEX
  5
C0F
  8
DATA
  6
CONTINUOUS
 62
     7
 10
47.982814852067939
 20
-48.302142485183481
 30
0.0
  0
VERTEX
  5
C10
  8
DATA
  6
CONTINUOUS
 62
     7
 10
47.888370347289019
 20
-48.403758574236342
 30
0.0
  0
VERTEX
  5
C11
  8
DATA
  6
CONTINUOUS
 62
     7
 10
47.792301615736811
 20
-48.505522111060493
 30
0.0
  0
VERTEX
  5
C12
  8
DATA
  6
CONTINUOUS
 62
     7
 10
47.694608657411358
 20
-48.607433095655921
 30
0.0
  0
VERTEX
  5
C13
  8
DATA
  6
CONTINUOUS
 62
     7
 10
47.595291472312603
 20
-48.709491528022681
 30
0.0
  0
VERTEX
  5
C14
  8
DATA
  6
CONTINUOUS
 62
     7
 10
47.494350060440581
 20
-48.811697408160747
 30
0.0
  0
VERTEX
  5
C15
  8
DATA
  6
CONTINUOUS
 62
     7
 10
47.3917844217953
 20
-48.914050736070067
 30
0.0
  0
VERTEX
  5
C16
  8
DATA
  6
CONTINUOUS
 62
     7
 10
47.287594556376753
 20
-49.016551511750691
 30
0.0
  0
VERTEX
  5
C17
  8
DATA
  6
CONTINUOUS
 62
     7
 10
47.181780464184932
 20
-49.119199735202628
 30
0.0
  0
VERTEX
  5
C18
  8
DATA
  6
CONTINUOUS
 62
     7
 10
47.074342145219831
 20
-49.221995406425883
 30
0.0
  0
VERTEX
  5
C19
  8
DATA
  6
CONTINUOUS
 62
     7
 10
46.965279599481448
 20
-49.324938525420443
 30
0.0
  0
VERTEX
  5
C1A
  8
DATA
  6
CONTINUOUS
 62
     7
 10
46.854592826969821
 20
-49.428029092186271
 30
0.0
  0
VERTEX
  5
C1B
  8
DATA
  6
CONTINUOUS
 62
     7
 10
46.742281827684899
 20
-49.531267106723433
 30
0.0
  0
VERTEX
  5
C1C
  8
DATA
  6
CONTINUOUS
 62
     7
 10
46.628346601626731
 20
-49.634652569031857
 30
0.0
  0
VERTEX
  5
C1D
  8
DATA
  6
CONTINUOUS
 62
     7
 10
46.512787148795283
 20
-49.738185479111557
 30
0.0
  0
VERTEX
  5
C1E
  8
DATA
  6
CONTINUOUS
 62
     7
 10
46.395603469190561
 20
-49.841865836962562
 30
0.0
  0
VERTEX
  5
C1F
  8
DATA
  6
CONTINUOUS
 62
     7
 10
46.276795562812573
 20
-49.945693642584899
 30
0.0
  0
VERTEX
  5
C20
  8
DATA
  6
CONTINUOUS
 62
     7
 10
46.15636342966129
 20
-50.04966889597852
 30
0.0
  0
VERTEX
  5
C21
  8
DATA
  6
CONTINUOUS
 62
     7
 10
46.034307069736741
 20
-50.15379159714346
 30
0.0
  0
VERTEX
  5
C22
  8
DATA
  6
CONTINUOUS
 62
     7
 10
45.910626483038932
 20
-50.258061746079683
 30
0.0
  0
VERTEX
  5
C23
  8
DATA
  6
CONTINUOUS
 62
     7
 10
45.78532166956785
 20
-50.362479342787189
 30
0.0
  0
VERTEX
  5
C24
  8
DATA
  6
CONTINUOUS
 62
     7
 10
45.658392629323501
 20
-50.467044387266029
 30
0.0
  0
VERTEX
  5
C25
  8
DATA
  6
CONTINUOUS
 62
     7
 10
45.529839362305879
 20
-50.571756879516109
 30
0.0
  0
VERTEX
  5
C26
  8
DATA
  6
CONTINUOUS
 62
     7
 10
45.399661868514997
 20
-50.676616819537529
 30
0.0
  0
VERTEX
  5
C27
  8
DATA
  6
CONTINUOUS
 62
     7
 10
45.26786014795082
 20
-50.781624207330218
 30
0.0
  0
VERTEX
  5
C28
  8
DATA
  6
CONTINUOUS
 62
     7
 10
45.134434200613391
 20
-50.886779042894211
 30
0.0
  0
VERTEX
  5
C29
  8
DATA
  6
CONTINUOUS
 62
     7
 10
44.999384026502682
 20
-50.992081326229552
 30
0.0
  0
VERTEX
  5
C2A
  8
DATA
  6
CONTINUOUS
 62
     7
 10
44.999384026502682
 20
-50.992081326229552
 30
0.0
  0
VERTEX
  5
C2B
  8
DATA
  6
CONTINUOUS
 62
     7
 10
44.904923410698203
 20
-51.065286075987018
 30
0.0
  0
VERTEX
  5
C2C
  8
DATA
  6
CONTINUOUS
 62
     7
 10
44.811451613671757
 20
-51.137604388987882
 30
0.0
  0
VERTEX
  5
C2D
  8
DATA
  6
CONTINUOUS
 62
     7
 10
44.718968635423359
 20
-51.209036265232207
 30
0.0
  0
VERTEX
  5
C2E
  8
DATA
  6
CONTINUOUS
 62
     7
 10
44.627474475952972
 20
-51.279581704719917
 30
0.0
  0
VERTEX
  5
C2F
  8
DATA
  6
CONTINUOUS
 62
     7
 10
44.536969135260613
 20
-51.349240707451102
 30
0.0
  0
VERTEX
  5
C30
  8
DATA
  6
CONTINUOUS
 62
     7
 10
44.4474526133463
 20
-51.418013273425622
 30
0.0
  0
VERTEX
  5
C31
  8
DATA
  6
CONTINUOUS
 62
     7
 10
44.358924910210021
 20
-51.485899402643639
 30
0.0
  0
VERTEX
  5
C32
  8
DATA
  6
CONTINUOUS
 62
     7
 10
44.271386025851768
 20
-51.552899095105033
 30
0.0
  0
VERTEX
  5
C33
  8
DATA
  6
CONTINUOUS
 62
     7
 10
44.184835960271549
 20
-51.61901235080984
 30
0.0
  0
VERTEX
  5
C34
  8
DATA
  6
CONTINUOUS
 62
     7
 10
44.09927471346937
 20
-51.684239169758087
 30
0.0
  0
VERTEX
  5
C35
  8
DATA
  6
CONTINUOUS
 62
     7
 10
44.014702285445217
 20
-51.748579551949739
 30
0.0
  0
VERTEX
  5
C36
  8
DATA
  6
CONTINUOUS
 62
     7
 10
43.931118676199091
 20
-51.812033497384817
 30
0.0
  0
VERTEX
  5
C37
  8
DATA
  6
CONTINUOUS
 62
     7
 10
43.848523885731012
 20
-51.874601006063301
 30
0.0
  0
VERTEX
  5
C38
  8
DATA
  6
CONTINUOUS
 62
     7
 10
43.76691791404096
 20
-51.936282077985197
 30
0.0
  0
VERTEX
  5
C39
  8
DATA
  6
CONTINUOUS
 62
     7
 10
43.68630076112894
 20
-51.997076713150527
 30
0.0
  0
VERTEX
  5
C3A
  8
DATA
  6
CONTINUOUS
 62
     7
 10
43.606672426994962
 20
-52.056984911559312
 30
0.0
  0
VERTEX
  5
C3B
  8
DATA
  6
CONTINUOUS
 62
     7
 10
43.528032911639002
 20
-52.116006673211501
 30
0.0
  0
VERTEX
  5
C3C
  8
DATA
  6
CONTINUOUS
 62
     7
 10
43.450382215061083
 20
-52.174141998107082
 30
0.0
  0
VERTEX
  5
C3D
  8
DATA
  6
CONTINUOUS
 62
     7
 10
43.37372033726119
 20
-52.231390886246118
 30
0.0
  0
VERTEX
  5
C3E
  8
DATA
  6
CONTINUOUS
 62
     7
 10
43.298047278239331
 20
-52.28775333762853
 30
0.0
  0
VERTEX
  5
C3F
  8
DATA
  6
CONTINUOUS
 62
     7
 10
43.223363037995512
 20
-52.343229352254362
 30
0.0
  0
VERTEX
  5
C40
  8
DATA
  6
CONTINUOUS
 62
     7
 10
43.149667616529712
 20
-52.397818930123599
 30
0.0
  0
VERTEX
  5
C41
  8
DATA
  6
CONTINUOUS
 62
     7
 10
43.076961013841967
 20
-52.451522071236319
 30
0.0
  0
VERTEX
  5
C42
  8
DATA
  6
CONTINUOUS
 62
     7
 10
43.005243229932248
 20
-52.50433877559243
 30
0.0
  0
VERTEX
  5
C43
  8
DATA
  6
CONTINUOUS
 62
     7
 10
42.934514264800562
 20
-52.556269043191939
 30
0.0
  0
VERTEX
  5
C44
  8
DATA
  6
CONTINUOUS
 62
     7
 10
42.864774118446888
 20
-52.607312874034882
 30
0.0
  0
VERTEX
  5
C45
  8
DATA
  6
CONTINUOUS
 62
     7
 10
42.796022790871277
 20
-52.657470268121251
 30
0.0
  0
VERTEX
  5
C46
  8
DATA
  6
CONTINUOUS
 62
     7
 10
42.728260282073677
 20
-52.706741225451033
 30
0.0
  0
VERTEX
  5
C47
  8
DATA
  6
CONTINUOUS
 62
     7
 10
42.661486592054132
 20
-52.755125746024248
 30
0.0
  0
VERTEX
  5
C48
  8
DATA
  6
CONTINUOUS
 62
     7
 10
42.595701720812599
 20
-52.802623829840847
 30
0.0
  0
VERTEX
  5
C49
  8
DATA
  6
CONTINUOUS
 62
     7
 10
42.530905668349099
 20
-52.849235476900901
 30
0.0
  0
VERTEX
  5
C4A
  8
DATA
  6
CONTINUOUS
 62
     7
 10
42.46709843466364
 20
-52.894960687204332
 30
0.0
  0
VERTEX
  5
C4B
  8
DATA
  6
CONTINUOUS
 62
     7
 10
42.404280019756207
 20
-52.939799460751203
 30
0.0
  0
VERTEX
  5
C4C
  8
DATA
  6
CONTINUOUS
 62
     7
 10
42.342450423626808
 20
-52.983751797541487
 30
0.0
  0
VERTEX
  5
C4D
  8
DATA
  6
CONTINUOUS
 62
     7
 10
42.281609646275449
 20
-53.026817697575197
 30
0.0
  0
VERTEX
  5
C4E
  8
DATA
  6
CONTINUOUS
 62
     7
 10
42.221757687702109
 20
-53.068997160852348
 30
0.0
  0
VERTEX
  5
C4F
  8
DATA
  6
CONTINUOUS
 62
     7
 10
42.162894547906831
 20
-53.110290187372932
 30
0.0
  0
VERTEX
  5
C50
  8
DATA
  6
CONTINUOUS
 62
     7
 10
42.105020226889572
 20
-53.150696777136879
 30
0.0
  0
VERTEX
  5
C51
  8
DATA
  6
CONTINUOUS
 62
     7
 10
42.048134724650332
 20
-53.190216930144288
 30
0.0
  0
VERTEX
  5
C52
  8
DATA
  6
CONTINUOUS
 62
     7
 10
41.99223804118914
 20
-53.228850646395067
 30
0.0
  0
VERTEX
  5
C53
  8
DATA
  6
CONTINUOUS
 62
     7
 10
41.937330176505967
 20
-53.2665979258893
 30
0.0
  0
VERTEX
  5
C54
  8
DATA
  6
CONTINUOUS
 62
     7
 10
41.883411130600841
 20
-53.303458768626932
 30
0.0
  0
VERTEX
  5
C55
  8
DATA
  6
CONTINUOUS
 62
     7
 10
41.830480903473742
 20
-53.339433174608018
 30
0.0
  0
VERTEX
  5
C56
  8
DATA
  6
CONTINUOUS
 62
     7
 10
41.778539495124669
 20
-53.37452114383251
 30
0.0
  0
VERTEX
  5
C57
  8
DATA
  6
CONTINUOUS
 62
     7
 10
41.727586905553643
 20
-53.408722676300393
 30
0.0
  0
VERTEX
  5
C58
  8
DATA
  6
CONTINUOUS
 62
     7
 10
41.677623134760637
 20
-53.442037772011702
 30
0.0
  0
VERTEX
  5
C59
  8
DATA
  6
CONTINUOUS
 62
     7
 10
41.628648182745657
 20
-53.474466430966459
 30
0.0
  0
VERTEX
  5
C5A
  8
DATA
  6
CONTINUOUS
 62
     7
 10
41.580662049508717
 20
-53.506008653164628
 30
0.0
  0
VERTEX
  5
C5B
  8
DATA
  6
CONTINUOUS
 62
     7
 10
41.533664735049832
 20
-53.536664438606209
 30
0.0
  0
VERTEX
  5
C5C
  8
DATA
  6
CONTINUOUS
 62
     7
 10
41.48765623936896
 20
-53.566433787291203
 30
0.0
  0
VERTEX
  5
C5D
  8
DATA
  6
CONTINUOUS
 62
     7
 10
41.442636562466113
 20
-53.595316699219609
 30
0.0
  0
VERTEX
  5
C5E
  8
DATA
  6
CONTINUOUS
 62
     7
 10
41.398605704341321
 20
-53.623313174391463
 30
0.0
  0
VERTEX
  5
C5F
  8
DATA
  6
CONTINUOUS
 62
     7
 10
41.355563664994548
 20
-53.650423212806743
 30
0.0
  0
VERTEX
  5
C60
  8
DATA
  6
CONTINUOUS
 62
     7
 10
41.313510444425802
 20
-53.676646814465407
 30
0.0
  0
VERTEX
  5
C61
  8
DATA
  6
CONTINUOUS
 62
     7
 10
41.27244604263511
 20
-53.70198397936754
 30
0.0
  0
VERTEX
  5
C62
  8
DATA
  6
CONTINUOUS
 62
     7
 10
41.23237045962243
 20
-53.726434707513022
 30
0.0
  0
VERTEX
  5
C63
  8
DATA
  6
CONTINUOUS
 62
     7
 10
41.193283695387791
 20
-53.749998998901951
 30
0.0
  0
VERTEX
  5
C64
  8
DATA
  6
CONTINUOUS
 62
     7
 10
41.155185749931157
 20
-53.772676853534307
 30
0.0
  0
VERTEX
  5
C65
  8
DATA
  6
CONTINUOUS
 62
     7
 10
41.118076623252612
 20
-53.794468271410068
 30
0.0
  0
VERTEX
  5
C66
  8
DATA
  6
CONTINUOUS
 62
     7
 10
41.081956315352052
 20
-53.815373252529277
 30
0.0
  0
VERTEX
  5
C67
  8
DATA
  6
CONTINUOUS
 62
     7
 10
41.046824826229539
 20
-53.835391796891891
 30
0.0
  0
VERTEX
  5
C68
  8
DATA
  6
CONTINUOUS
 62
     7
 10
41.012682155885066
 20
-53.85452390449791
 30
0.0
  0
VERTEX
  5
C69
  8
DATA
  6
CONTINUOUS
 62
     7
 10
40.979528304318627
 20
-53.872769575347377
 30
0.0
  0
VERTEX
  5
C6A
  8
DATA
  6
CONTINUOUS
 62
     7
 10
40.947363271530229
 20
-53.890128809440228
 30
0.0
  0
VERTEX
  5
C6B
  8
DATA
  6
CONTINUOUS
 62
     7
 10
40.947363271530229
 20
-53.890128809440228
 30
0.0
  0
SEQEND
  5
C6C
  8
DATA
  6
CONTINUOUS
 62
     7
  0
LINE
  5
429
  8
DATA
  6
CONTINUOUS
 62
     7
 10
60.198028231183741
 20
-21.287673604508122
 30
0.0
 11
60.729692317333154
 21
-20.894113557299988
 31
0.0
  0
LINE
  5
42A
  8
DATA
  6
CONTINUOUS
 62
     7
 10
62.094165681157278
 20
-23.257718696160332
 30
0.0
 11
62.094272293121783
 21
-23.257635406357021
 31
0.0
  0
POLYLINE
  5
42B
  8
DATA
  6
CONTINUOUS
 62
     7
 66
     1
 10
0.0
 20
0.0
 30
0.0
 70
   128
  0
VERTEX
  5
C6D
  8
DATA
  6
CONTINUOUS
 62
     7
 10
38.305399355186218
 20
-59.31411355729999
 30
0.0
  0
VERTEX
  5
C6E
  8
DATA
  6
CONTINUOUS
 62
     7
 10
38.043916025569843
 20
-59.488735139331247
 30
0.0
  0
VERTEX
  5
C6F
  8
DATA
  6
CONTINUOUS
 62
     7
 10
37.784803496419883
 20
-59.662599885425003
 30
0.0
  0
VERTEX
  5
C70
  8
DATA
  6
CONTINUOUS
 62
     7
 10
37.528061767736297
 20
-59.835707795581243
 30
0.0
  0
VERTEX
  5
C71
  8
DATA
  6
CONTINUOUS
 62
     7
 10
37.273690839519134
 20
-60.008058869799967
 30
0.0
  0
VERTEX
  5
C72
  8
DATA
  6
CONTINUOUS
 62
     7
 10
37.021690711768358
 20
-60.179653108081219
 30
0.0
  0
VERTEX
  5
C73
  8
DATA
  6
CONTINUOUS
 62
     7
 10
36.77206138448399
 20
-60.350490510424997
 30
0.0
  0
VERTEX
  5
C74
  8
DATA
  6
CONTINUOUS
 62
     7
 10
36.524802857666018
 20
-60.520571076831217
 30
0.0
  0
VERTEX
  5
C75
  8
DATA
  6
CONTINUOUS
 62
     7
 10
36.279915131314439
 20
-60.689894807299993
 30
0.0
  0
VERTEX
  5
C76
  8
DATA
  6
CONTINUOUS
 62
     7
 10
36.03739820542927
 20
-60.858461701831217
 30
0.0
  0
VERTEX
  5
C77
  8
DATA
  6
CONTINUOUS
 62
     7
 10
35.797252080010487
 20
-61.026271760424997
 30
0.0
  0
VERTEX
  5
C78
  8
DATA
  6
CONTINUOUS
 62
     7
 10
35.559476755058128
 20
-61.193324983081212
 30
0.0
  0
VERTEX
  5
C79
  8
DATA
  6
CONTINUOUS
 62
     7
 10
35.324072230572149
 20
-61.359621369799981
 30
0.0
  0
VERTEX
  5
C7A
  8
DATA
  6
CONTINUOUS
 62
     7
 10
35.091038506552572
 20
-61.525160920581243
 30
0.0
  0
VERTEX
  5
C7B
  8
DATA
  6
CONTINUOUS
 62
     7
 10
34.860375582999403
 20
-61.689943635425003
 30
0.0
  0
VERTEX
  5
C7C
  8
DATA
  6
CONTINUOUS
 62
     7
 10
34.632083459912607
 20
-61.853969514331247
 30
0.0
  0
VERTEX
  5
C7D
  8
DATA
  6
CONTINUOUS
 62
     7
 10
34.406162137292227
 20
-62.017238557299997
 30
0.0
  0
VERTEX
  5
C7E
  8
DATA
  6
CONTINUOUS
 62
     7
 10
34.182611615138271
 20
-62.179750764331217
 30
0.0
  0
VERTEX
  5
C7F
  8
DATA
  6
CONTINUOUS
 62
     7
 10
33.961431893450687
 20
-62.341506135424993
 30
0.0
  0
VERTEX
  5
C80
  8
DATA
  6
CONTINUOUS
 62
     7
 10
33.742622972229512
 20
-62.502504670581231
 30
0.0
  0
VERTEX
  5
C81
  8
DATA
  6
CONTINUOUS
 62
     7
 10
33.526184851474731
 20
-62.662746369799997
 30
0.0
  0
VERTEX
  5
C82
  8
DATA
  6
CONTINUOUS
 62
     7
 10
33.312117531186352
 20
-62.82223123308124
 30
0.0
  0
VERTEX
  5
C83
  8
DATA
  6
CONTINUOUS
 62
     7
 10
33.100421011364361
 20
-62.980959260425003
 30
0.0
  0
VERTEX
  5
C84
  8
DATA
  6
CONTINUOUS
 62
     7
 10
32.891095292008778
 20
-63.138930451831243
 30
0.0
  0
VERTEX
  5
C85
  8
DATA
  6
CONTINUOUS
 62
     7
 10
32.684140373119611
 20
-63.296144807300003
 30
0.0
  0
VERTEX
  5
C86
  8
DATA
  6
CONTINUOUS
 62
     7
 10
32.479556254696853
 20
-63.45260232683124
 30
0.0
  0
VERTEX
  5
C87
  8
DATA
  6
CONTINUOUS
 62
     7
 10
32.277342936740467
 20
-63.608303010425011
 30
0.0
  0
VERTEX
  5
C88
  8
DATA
  6
CONTINUOUS
 62
     7
 10
32.077500419250491
 20
-63.763246858081217
 30
0.0
  0
VERTEX
  5
C89
  8
DATA
  6
CONTINUOUS
 62
     7
 10
31.880028702226891
 20
-63.917433869799993
 30
0.0
  0
VERTEX
  5
C8A
  8
DATA
  6
CONTINUOUS
 62
     7
 10
31.6849277856697
 20
-64.070864045581231
 30
0.0
  0
VERTEX
  5
C8B
  8
DATA
  6
CONTINUOUS
 62
     7
 10
31.492197669578911
 20
-64.223537385425004
 30
0.0
  0
VERTEX
  5
C8C
  8
DATA
  6
CONTINUOUS
 62
     7
 10
31.30183835395453
 20
-64.37545388933124
 30
0.0
  0
VERTEX
  5
C8D
  8
DATA
  6
CONTINUOUS
 62
     7
 10
31.113849838796561
 20
-64.526613557299996
 30
0.0
  0
VERTEX
  5
C8E
  8
DATA
  6
CONTINUOUS
 62
     7
 10
30.928232124104969
 20
-64.677016389331243
 30
0.0
  0
VERTEX
  5
C8F
  8
DATA
  6
CONTINUOUS
 62
     7
 10
30.744985209879768
 20
-64.82666238542501
 30
0.0
  0
VERTEX
  5
C90
  8
DATA
  6
CONTINUOUS
 62
     7
 10
30.56410909612099
 20
-64.97555154558124
 30
0.0
  0
VERTEX
  5
C91
  8
DATA
  6
CONTINUOUS
 62
     7
 10
30.385603782828611
 20
-65.12368386979999
 30
0.0
  0
VERTEX
  5
C92
  8
DATA
  6
CONTINUOUS
 62
     7
 10
30.209469270002629
 20
-65.271059358081231
 30
0.0
  0
VERTEX
  5
C93
  8
DATA
  6
CONTINUOUS
 62
     7
 10
30.035705557643041
 20
-65.417678010424993
 30
0.0
  0
VERTEX
  5
C94
  8
DATA
  6
CONTINUOUS
 62
     7
 10
29.864312645749848
 20
-65.563539826831231
 30
0.0
  0
VERTEX
  5
C95
  8
DATA
  6
CONTINUOUS
 62
     7
 10
29.695290534323071
 20
-65.70864480729999
 30
0.0
  0
VERTEX
  5
C96
  8
DATA
  6
CONTINUOUS
 62
     7
 10
29.528639223362681
 20
-65.85299295183124
 30
0.0
  0
VERTEX
  5
C97
  8
DATA
  6
CONTINUOUS
 62
     7
 10
29.36435871286869
 20
-65.99658426042501
 30
0.0
  0
VERTEX
  5
C98
  8
DATA
  6
CONTINUOUS
 62
     7
 10
29.20244900284111
 20
-66.139418733081243
 30
0.0
  0
VERTEX
  5
C99
  8
DATA
  6
CONTINUOUS
 62
     7
 10
29.042910093279911
 20
-66.281496369799981
 30
0.0
  0
VERTEX
  5
C9A
  8
DATA
  6
CONTINUOUS
 62
     7
 10
28.88574198418512
 20
-66.422817170581212
 30
0.0
  0
VERTEX
  5
C9B
  8
DATA
  6
CONTINUOUS
 62
     7
 10
28.730944675556731
 20
-66.563381135425004
 30
0.0
  0
VERTEX
  5
C9C
  8
DATA
  6
CONTINUOUS
 62
     7
 10
28.57851816739473
 20
-66.703188264331231
 30
0.0
  0
VERTEX
  5
C9D
  8
DATA
  6
CONTINUOUS
 62
     7
 10
28.428462459699151
 20
-66.842238557299993
 30
0.0
  0
VERTEX
  5
C9E
  8
DATA
  6
CONTINUOUS
 62
     7
 10
28.28077755246996
 20
-66.980532014331231
 30
0.0
  0
VERTEX
  5
C9F
  8
DATA
  6
CONTINUOUS
 62
     7
 10
28.13546344570716
 20
-67.118068635425004
 30
0.0
  0
VERTEX
  5
CA0
  8
DATA
  6
CONTINUOUS
 62
     7
 10
27.992520139410772
 20
-67.254848420581212
 30
0.0
  0
VERTEX
  5
CA1
  8
DATA
  6
CONTINUOUS
 62
     7
 10
27.851947633580771
 20
-67.390871369799981
 30
0.0
  0
VERTEX
  5
CA2
  8
DATA
  6
CONTINUOUS
 62
     7
 10
27.713745928217168
 20
-67.526137483081243
 30
0.0
  0
VERTEX
  5
CA3
  8
DATA
  6
CONTINUOUS
 62
     7
 10
27.577915023319971
 20
-67.66064676042501
 30
0.0
  0
VERTEX
  5
CA4
  8
DATA
  6
CONTINUOUS
 62
     7
 10
27.444454918889178
 20
-67.79439920183124
 30
0.0
  0
VERTEX
  5
CA5
  8
DATA
  6
CONTINUOUS
 62
     7
 10
27.313365614924791
 20
-67.92739480729999
 30
0.0
  0
VERTEX
  5
CA6
  8
DATA
  6
CONTINUOUS
 62
     7
 10
27.184647111426798
 20
-68.059633576831231
 30
0.0
  0
VERTEX
  5
CA7
  8
DATA
  6
CONTINUOUS
 62
     7
 10
27.0582994083952
 20
-68.191115510424993
 30
0.0
  0
VERTEX
  5
CA8
  8
DATA
  6
CONTINUOUS
 62
     7
 10
26.934322505830011
 20
-68.321840608081231
 30
0.0
  0
VERTEX
  5
CA9
  8
DATA
  6
CONTINUOUS
 62
     7
 10
26.812716403731201
 20
-68.45180886979999
 30
0.0
  0
VERTEX
  5
CAA
  8
DATA
  6
CONTINUOUS
 62
     7
 10
26.693481102098801
 20
-68.58102029558124
 30
0.0
  0
VERTEX
  5
CAB
  8
DATA
  6
CONTINUOUS
 62
     7
 10
26.576616600932809
 20
-68.70947488542501
 30
0.0
  0
VERTEX
  5
CAC
  8
DATA
  6
CONTINUOUS
 62
     7
 10
26.462122900233211
 20
-68.837172639331243
 30
0.0
  0
VERTEX
  5
CAD
  8
DATA
  6
CONTINUOUS
 62
     7
 10
26.350000000000009
 20
-68.96411355730001
 30
0.0
  0
VERTEX
  5
CAE
  8
DATA
  6
CONTINUOUS
 62
     7
 10
26.2394640488554
 20
-69.09049295183128
 30
0.0
  0
VERTEX
  5
CAF
  8
DATA
  6
CONTINUOUS
 62
     7
 10
26.12973119542157
 20
-69.216506135424993
 30
0.0
  0
VERTEX
  5
CB0
  8
DATA
  6
CONTINUOUS
 62
     7
 10
26.020801439698531
 20
-69.342153108081249
 30
0.0
  0
VERTEX
  5
CB1
  8
DATA
  6
CONTINUOUS
 62
     7
 10
25.912674781686249
 20
-69.46743386979999
 30
0.0
  0
VERTEX
  5
CB2
  8
DATA
  6
CONTINUOUS
 62
     7
 10
25.805351221384761
 20
-69.59234842058126
 30
0.0
  0
VERTEX
  5
CB3
  8
DATA
  6
CONTINUOUS
 62
     7
 10
25.698830758794031
 20
-69.71689676042503
 30
0.0
  0
VERTEX
  5
CB4
  8
DATA
  6
CONTINUOUS
 62
     7
 10
25.593113393914081
 20
-69.841078889331271
 30
0.0
  0
VERTEX
  5
CB5
  8
DATA
  6
CONTINUOUS
 62
     7
 10
25.48819912674492
 20
-69.964894807300027
 30
0.0
  0
VERTEX
  5
CB6
  8
DATA
  6
CONTINUOUS
 62
     7
 10
25.384087957286528
 20
-70.088344514331283
 30
0.0
  0
VERTEX
  5
CB7
  8
DATA
  6
CONTINUOUS
 62
     7
 10
25.28077988553893
 20
-70.211428010425038
 30
0.0
  0
VERTEX
  5
CB8
  8
DATA
  6
CONTINUOUS
 62
     7
 10
25.178274911502111
 20
-70.33414529558128
 30
0.0
  0
VERTEX
  5
CB9
  8
DATA
  6
CONTINUOUS
 62
     7
 10
25.076573035176061
 20
-70.456496369800021
 30
0.0
  0
VERTEX
  5
CBA
  8
DATA
  6
CONTINUOUS
 62
     7
 10
24.975674256560801
 20
-70.578481233081277
 30
0.0
  0
VERTEX
  5
CBB
  8
DATA
  6
CONTINUOUS
 62
     7
 10
24.875578575656291
 20
-70.700099885425004
 30
0.0
  0
VERTEX
  5
CBC
  8
DATA
  6
CONTINUOUS
 62
     7
 10
24.776285992462569
 20
-70.82135232683126
 30
0.0
  0
VERTEX
  5
CBD
  8
DATA
  6
CONTINUOUS
 62
     7
 10
24.67779650697965
 20
-70.942238557300016
 30
0.0
  0
VERTEX
  5
CBE
  8
DATA
  6
CONTINUOUS
 62
     7
 10
24.580110119207479
 20
-71.062758576831271
 30
0.0
  0
VERTEX
  5
CBF
  8
DATA
  6
CONTINUOUS
 62
     7
 10
24.483226829146108
 20
-71.182912385425027
 30
0.0
  0
VERTEX
  5
CC0
  8
DATA
  6
CONTINUOUS
 62
     7
 10
24.387146636795489
 20
-71.30269998308124
 30
0.0
  0
VERTEX
  5
CC1
  8
DATA
  6
CONTINUOUS
 62
     7
 10
24.291869542155681
 20
-71.42212136980001
 30
0.0
  0
VERTEX
  5
CC2
  8
DATA
  6
CONTINUOUS
 62
     7
 10
24.197395545226641
 20
-71.541176545581266
 30
0.0
  0
VERTEX
  5
CC3
  8
DATA
  6
CONTINUOUS
 62
     7
 10
24.10372464600837
 20
-71.659865510424993
 30
0.0
  0
VERTEX
  5
CC4
  8
DATA
  6
CONTINUOUS
 62
     7
 10
24.010856844500889
 20
-71.778188264331234
 30
0.0
  0
VERTEX
  5
CC5
  8
DATA
  6
CONTINUOUS
 62
     7
 10
23.918792140704191
 20
-71.89614480729999
 30
0.0
  0
VERTEX
  5
CC6
  8
DATA
  6
CONTINUOUS
 62
     7
 10
23.827530534618251
 20
-72.01373513933126
 30
0.0
  0
VERTEX
  5
CC7
  8
DATA
  6
CONTINUOUS
 62
     7
 10
23.737072026243091
 20
-72.130959260425016
 30
0.0
  0
VERTEX
  5
CC8
  8
DATA
  6
CONTINUOUS
 62
     7
 10
23.647416615578731
 20
-72.247817170581271
 30
0.0
  0
VERTEX
  5
CC9
  8
DATA
  6
CONTINUOUS
 62
     7
 10
23.55856430262515
 20
-72.364308869800013
 30
0.0
  0
VERTEX
  5
CCA
  8
DATA
  6
CONTINUOUS
 62
     7
 10
23.470515087382331
 20
-72.480434358081283
 30
0.0
  0
VERTEX
  5
CCB
  8
DATA
  6
CONTINUOUS
 62
     7
 10
23.383268969850288
 20
-72.59619363542501
 30
0.0
  0
VERTEX
  5
CCC
  8
DATA
  6
CONTINUOUS
 62
     7
 10
23.296825950029032
 20
-72.711586701831266
 30
0.0
  0
VERTEX
  5
CCD
  8
DATA
  6
CONTINUOUS
 62
     7
 10
23.211186027918561
 20
-72.826613557300021
 30
0.0
  0
VERTEX
  5
CCE
  8
DATA
  6
CONTINUOUS
 62
     7
 10
23.126349203518881
 20
-72.941274201831263
 30
0.0
  0
VERTEX
  5
CCF
  8
DATA
  6
CONTINUOUS
 62
     7
 10
23.042315476829948
 20
-73.05556863542499
 30
0.0
  0
VERTEX
  5
CD0
  8
DATA
  6
CONTINUOUS
 62
     7
 10
22.959084847851798
 20
-73.169496858081246
 30
0.0
  0
VERTEX
  5
CD1
  8
DATA
  6
CONTINUOUS
 62
     7
 10
22.876657316584431
 20
-73.283058869800016
 30
0.0
  0
VERTEX
  5
CD2
  8
DATA
  6
CONTINUOUS
 62
     7
 10
22.79503288302784
 20
-73.396254670581271
 30
0.0
  0
VERTEX
  5
CD3
  8
DATA
  6
CONTINUOUS
 62
     7
 10
22.714211547182028
 20
-73.509084260425013
 30
0.0
  0
VERTEX
  5
CD4
  8
DATA
  6
CONTINUOUS
 62
     7
 10
22.63419330904701
 20
-73.621547639331283
 30
0.0
  0
VERTEX
  5
CD5
  8
DATA
  6
CONTINUOUS
 62
     7
 10
22.55497816862276
 20
-73.733644807300024
 30
0.0
  0
VERTEX
  5
CD6
  8
DATA
  6
CONTINUOUS
 62
     7
 10
22.47656612590929
 20
-73.845375764331294
 30
0.0
  0
VERTEX
  5
CD7
  8
DATA
  6
CONTINUOUS
 62
     7
 10
22.398957180906589
 20
-73.956740510425035
 30
0.0
  0
VERTEX
  5
CD8
  8
DATA
  6
CONTINUOUS
 62
     7
 10
22.32215133361467
 20
-74.067739045581263
 30
0.0
  0
VERTEX
  5
CD9
  8
DATA
  6
CONTINUOUS
 62
     7
 10
22.246148584033531
 20
-74.178371369800033
 30
0.0
  0
VERTEX
  5
CDA
  8
DATA
  6
CONTINUOUS
 62
     7
 10
22.170948932163171
 20
-74.288637483081288
 30
0.0
  0
VERTEX
  5
CDB
  8
DATA
  6
CONTINUOUS
 62
     7
 10
22.09655237800358
 20
-74.398537385425016
 30
0.0
  0
VERTEX
  5
CDC
  8
DATA
  6
CONTINUOUS
 62
     7
 10
22.022958921554771
 20
-74.508071076831271
 30
0.0
  0
VERTEX
  5
CDD
  8
DATA
  6
CONTINUOUS
 62
     7
 10
21.95016856281676
 20
-74.617238557300013
 30
0.0
  0
VERTEX
  5
CDE
  8
DATA
  6
CONTINUOUS
 62
     7
 10
21.878181301789521
 20
-74.726039826831283
 30
0.0
  0
VERTEX
  5
CDF
  8
DATA
  6
CONTINUOUS
 62
     7
 10
21.80699713847304
 20
-74.83447488542501
 30
0.0
  0
VERTEX
  5
CE0
  8
DATA
  6
CONTINUOUS
 62
     7
 10
21.736616072867349
 20
-74.942543733081266
 30
0.0
  0
VERTEX
  5
CE1
  8
DATA
  6
CONTINUOUS
 62
     7
 10
21.667038104972441
 20
-75.050246369800021
 30
0.0
  0
VERTEX
  5
CE2
  8
DATA
  6
CONTINUOUS
 62
     7
 10
21.598263234788291
 20
-75.157582795581263
 30
0.0
  0
VERTEX
  5
CE3
  8
DATA
  6
CONTINUOUS
 62
     7
 10
21.530291462314949
 20
-75.26455301042499
 30
0.0
  0
VERTEX
  5
CE4
  8
DATA
  6
CONTINUOUS
 62
     7
 10
21.463122787552368
 20
-75.37115701433126
 30
0.0
  0
VERTEX
  5
CE5
  8
DATA
  6
CONTINUOUS
 62
     7
 10
21.396757210500581
 20
-75.477394807300016
 30
0.0
  0
VERTEX
  5
CE6
  8
DATA
  6
CONTINUOUS
 62
     7
 10
21.33119473115957
 20
-75.583266389331271
 30
0.0
  0
VERTEX
  5
CE7
  8
DATA
  6
CONTINUOUS
 62
     7
 10
21.266435349529321
 20
-75.688771760425013
 30
0.0
  0
VERTEX
  5
CE8
  8
DATA
  6
CONTINUOUS
 62
     7
 10
21.202479065609872
 20
-75.79391092058124
 30
0.0
  0
VERTEX
  5
CE9
  8
DATA
  6
CONTINUOUS
 62
     7
 10
21.139325879401181
 20
-75.898683869799996
 30
0.0
  0
VERTEX
  5
CEA
  8
DATA
  6
CONTINUOUS
 62
     7
 10
21.07697579090329
 20
-76.003090608081266
 30
0.0
  0
VERTEX
  5
CEB
  8
DATA
  6
CONTINUOUS
 62
     7
 10
21.015428800116151
 20
-76.107131135424993
 30
0.0
  0
VERTEX
  5
CEC
  8
DATA
  6
CONTINUOUS
 62
     7
 10
20.954684907039798
 20
-76.210805451831249
 30
0.0
  0
VERTEX
  5
CED
  8
DATA
  6
CONTINUOUS
 62
     7
 10
20.894744111674228
 20
-76.31411355729999
 30
0.0
  0
VERTEX
  5
CEE
  8
DATA
  6
CONTINUOUS
 62
     7
 10
20.835329501828269
 20
-76.417336213550016
 30
0.0
  0
VERTEX
  5
CEF
  8
DATA
  6
CONTINUOUS
 62
     7
 10
20.77616416531075
 20
-76.52075418230001
 30
0.0
  0
VERTEX
  5
CF0
  8
DATA
  6
CONTINUOUS
 62
     7
 10
20.71724810212168
 20
-76.624367463550016
 30
0.0
  0
VERTEX
  5
CF1
  8
DATA
  6
CONTINUOUS
 62
     7
 10
20.658581312261049
 20
-76.72817605729999
 30
0.0
  0
VERTEX
  5
CF2
  8
DATA
  6
CONTINUOUS
 62
     7
 10
20.600163795728871
 20
-76.83217996354999
 30
0.0
  0
VERTEX
  5
CF3
  8
DATA
  6
CONTINUOUS
 62
     7
 10
20.541995552525119
 20
-76.936379182300016
 30
0.0
  0
VERTEX
  5
CF4
  8
DATA
  6
CONTINUOUS
 62
     7
 10
20.48407658264982
 20
-77.04077371355001
 30
0.0
  0
VERTEX
  5
CF5
  8
DATA
  6
CONTINUOUS
 62
     7
 10
20.426406886102971
 20
-77.145363557300016
 30
0.0
  0
VERTEX
  5
CF6
  8
DATA
  6
CONTINUOUS
 62
     7
 10
20.36898646288455
 20
-77.25014871354999
 30
0.0
  0
VERTEX
  5
CF7
  8
DATA
  6
CONTINUOUS
 62
     7
 10
20.31181531299459
 20
-77.35512918229999
 30
0.0
  0
VERTEX
  5
CF8
  8
DATA
  6
CONTINUOUS
 62
     7
 10
20.254893436433051
 20
-77.460304963550016
 30
0.0
  0
VERTEX
  5
CF9
  8
DATA
  6
CONTINUOUS
 62
     7
 10
20.198220833199969
 20
-77.56567605730001
 30
0.0
  0
VERTEX
  5
CFA
  8
DATA
  6
CONTINUOUS
 62
     7
 10
20.14179750329534
 20
-77.671242463550016
 30
0.0
  0
VERTEX
  5
CFB
  8
DATA
  6
CONTINUOUS
 62
     7
 10
20.08562344671914
 20
-77.77700418229999
 30
0.0
  0
VERTEX
  5
CFC
  8
DATA
  6
CONTINUOUS
 62
     7
 10
20.029698663471379
 20
-77.88296121354999
 30
0.0
  0
VERTEX
  5
CFD
  8
DATA
  6
CONTINUOUS
 62
     7
 10
19.974023153552071
 20
-77.989113557300016
 30
0.0
  0
VERTEX
  5
CFE
  8
DATA
  6
CONTINUOUS
 62
     7
 10
19.918596916961199
 20
-78.09546121355001
 30
0.0
  0
VERTEX
  5
CFF
  8
DATA
  6
CONTINUOUS
 62
     7
 10
19.863419953698781
 20
-78.202004182300016
 30
0.0
  0
VERTEX
  5
D00
  8
DATA
  6
CONTINUOUS
 62
     7
 10
19.808492263764801
 20
-78.30874246354999
 30
0.0
  0
VERTEX
  5
D01
  8
DATA
  6
CONTINUOUS
 62
     7
 10
19.753813847159272
 20
-78.41567605729999
 30
0.0
  0
VERTEX
  5
D02
  8
DATA
  6
CONTINUOUS
 62
     7
 10
19.69938470388216
 20
-78.522804963550016
 30
0.0
  0
VERTEX
  5
D03
  8
DATA
  6
CONTINUOUS
 62
     7
 10
19.645204833933501
 20
-78.63012918230001
 30
0.0
  0
VERTEX
  5
D04
  8
DATA
  6
CONTINUOUS
 62
     7
 10
19.5912742373133
 20
-78.737648713550016
 30
0.0
  0
VERTEX
  5
D05
  8
DATA
  6
CONTINUOUS
 62
     7
 10
19.537592914021531
 20
-78.84536355729999
 30
0.0
  0
VERTEX
  5
D06
  8
DATA
  6
CONTINUOUS
 62
     7
 10
19.484160864058211
 20
-78.95327371354999
 30
0.0
  0
VERTEX
  5
D07
  8
DATA
  6
CONTINUOUS
 62
     7
 10
19.43097808742333
 20
-79.061379182300016
 30
0.0
  0
VERTEX
  5
D08
  8
DATA
  6
CONTINUOUS
 62
     7
 10
19.378044584116889
 20
-79.16967996355001
 30
0.0
  0
VERTEX
  5
D09
  8
DATA
  6
CONTINUOUS
 62
     7
 10
19.325360354138901
 20
-79.278176057300016
 30
0.0
  0
VERTEX
  5
D0A
  8
DATA
  6
CONTINUOUS
 62
     7
 10
19.272925397489342
 20
-79.38686746354999
 30
0.0
  0
VERTEX
  5
D0B
  8
DATA
  6
CONTINUOUS
 62
     7
 10
19.220739714168239
 20
-79.49575418229999
 30
0.0
  0
VERTEX
  5
D0C
  8
DATA
  6
CONTINUOUS
 62
     7
 10
19.168803304175562
 20
-79.604836213550016
 30
0.0
  0
VERTEX
  5
D0D
  8
DATA
  6
CONTINUOUS
 62
     7
 10
19.117116167511352
 20
-79.71411355730001
 30
0.0
  0
VERTEX
  5
D0E
  8
DATA
  6
CONTINUOUS
 62
     7
 10
19.06567830417557
 20
-79.823586213550016
 30
0.0
  0
VERTEX
  5
D0F
  8
DATA
  6
CONTINUOUS
 62
     7
 10
19.014489714168239
 20
-79.93325418229999
 30
0.0
  0
VERTEX
  5
D10
  8
DATA
  6
CONTINUOUS
 62
     7
 10
18.96355039748936
 20
-80.043117463549976
 30
0.0
  0
VERTEX
  5
D11
  8
DATA
  6
CONTINUOUS
 62
     7
 10
18.9128603541389
 20
-80.153176057300016
 30
0.0
  0
VERTEX
  5
D12
  8
DATA
  6
CONTINUOUS
 62
     7
 10
18.862419584116889
 20
-80.26342996355001
 30
0.0
  0
VERTEX
  5
D13
  8
DATA
  6
CONTINUOUS
 62
     7
 10
18.812228087423328
 20
-80.373879182300016
 30
0.0
  0
VERTEX
  5
D14
  8
DATA
  6
CONTINUOUS
 62
     7
 10
18.762285864058221
 20
-80.48452371354999
 30
0.0
  0
VERTEX
  5
D15
  8
DATA
  6
CONTINUOUS
 62
     7
 10
18.712592914021538
 20
-80.59536355729999
 30
0.0
  0
VERTEX
  5
D16
  8
DATA
  6
CONTINUOUS
 62
     7
 10
18.663149237313299
 20
-80.706398713550016
 30
0.0
  0
VERTEX
  5
D17
  8
DATA
  6
CONTINUOUS
 62
     7
 10
18.613954833933519
 20
-80.81762918230001
 30
0.0
  0
VERTEX
  5
D18
  8
DATA
  6
CONTINUOUS
 62
     7
 10
18.565009703882168
 20
-80.929054963550016
 30
0.0
  0
VERTEX
  5
D19
  8
DATA
  6
CONTINUOUS
 62
     7
 10
18.516313847159271
 20
-81.040676057300004
 30
0.0
  0
VERTEX
  5
D1A
  8
DATA
  6
CONTINUOUS
 62
     7
 10
18.467867263764798
 20
-81.15249246354999
 30
0.0
  0
VERTEX
  5
D1B
  8
DATA
  6
CONTINUOUS
 62
     7
 10
18.41966995369879
 20
-81.264504182300016
 30
0.0
  0
VERTEX
  5
D1C
  8
DATA
  6
CONTINUOUS
 62
     7
 10
18.371721916961221
 20
-81.37671121355001
 30
0.0
  0
VERTEX
  5
D1D
  8
DATA
  6
CONTINUOUS
 62
     7
 10
18.32402315355208
 20
-81.489113557300016
 30
0.0
  0
VERTEX
  5
D1E
  8
DATA
  6
CONTINUOUS
 62
     7
 10
18.27657366347141
 20
-81.60171121354999
 30
0.0
  0
VERTEX
  5
D1F
  8
DATA
  6
CONTINUOUS
 62
     7
 10
18.229373446719151
 20
-81.714504182300004
 30
0.0
  0
VERTEX
  5
D20
  8
DATA
  6
CONTINUOUS
 62
     7
 10
18.182422503295339
 20
-81.827492463550016
 30
0.0
  0
VERTEX
  5
D21
  8
DATA
  6
CONTINUOUS
 62
     7
 10
18.135720833199979
 20
-81.94067605730001
 30
0.0
  0
VERTEX
  5
D22
  8
DATA
  6
CONTINUOUS
 62
     7
 10
18.08926843643307
 20
-82.054054963550016
 30
0.0
  0
VERTEX
  5
D23
  8
DATA
  6
CONTINUOUS
 62
     7
 10
18.043065312994599
 20
-82.16762918229999
 30
0.0
  0
VERTEX
  5
D24
  8
DATA
  6
CONTINUOUS
 62
     7
 10
17.997111462884568
 20
-82.28139871354999
 30
0.0
  0
VERTEX
  5
D25
  8
DATA
  6
CONTINUOUS
 62
     7
 10
17.95140688610298
 20
-82.395363557300016
 30
0.0
  0
VERTEX
  5
D26
  8
DATA
  6
CONTINUOUS
 62
     7
 10
17.905951582649848
 20
-82.50952371355001
 30
0.0
  0
VERTEX
  5
D27
  8
DATA
  6
CONTINUOUS
 62
     7
 10
17.860745552525142
 20
-82.623879182300016
 30
0.0
  0
VERTEX
  5
D28
  8
DATA
  6
CONTINUOUS
 62
     7
 10
17.815788795728889
 20
-82.738429963549976
 30
0.0
  0
VERTEX
  5
D29
  8
DATA
  6
CONTINUOUS
 62
     7
 10
17.771081312261071
 20
-82.853176057299976
 30
0.0
  0
VERTEX
  5
D2A
  8
DATA
  6
CONTINUOUS
 62
     7
 10
17.72662310212171
 20
-82.968117463550016
 30
0.0
  0
VERTEX
  5
D2B
  8
DATA
  6
CONTINUOUS
 62
     7
 10
17.682414165310771
 20
-83.08325418230001
 30
0.0
  0
VERTEX
  5
D2C
  8
DATA
  6
CONTINUOUS
 62
     7
 10
17.638454501828289
 20
-83.198586213550016
 30
0.0
  0
VERTEX
  5
D2D
  8
DATA
  6
CONTINUOUS
 62
     7
 10
17.594744111674238
 20
-83.31411355729999
 30
0.0
  0
VERTEX
  5
D2E
  8
DATA
  6
CONTINUOUS
 62
     7
 10
17.55137680157107
 20
-83.429445588549996
 30
0.0
  0
VERTEX
  5
D2F
  8
DATA
  6
CONTINUOUS
 62
     7
 10
17.50844637824116
 20
-83.544191682299981
 30
0.0
  0
VERTEX
  5
D30
  8
DATA
  6
CONTINUOUS
 62
     7
 10
17.46595284168454
 20
-83.65835183854999
 30
0.0
  0
VERTEX
  5
D31
  8
DATA
  6
CONTINUOUS
 62
     7
 10
17.423896191901189
 20
-83.771926057300007
 30
0.0
  0
VERTEX
  5
D32
  8
DATA
  6
CONTINUOUS
 62
     7
 10
17.382276428891132
 20
-83.884914338550004
 30
0.0
  0
VERTEX
  5
D33
  8
DATA
  6
CONTINUOUS
 62
     7
 10
17.341093552654339
 20
-83.997316682299981
 30
0.0
  0
VERTEX
  5
D34
  8
DATA
  6
CONTINUOUS
 62
     7
 10
17.30034756319084
 20
-84.109133088549996
 30
0.0
  0
VERTEX
  5
D35
  8
DATA
  6
CONTINUOUS
 62
     7
 10
17.260038460500589
 20
-84.220363557299976
 30
0.0
  0
VERTEX
  5
D36
  8
DATA
  6
CONTINUOUS
 62
     7
 10
17.220166244583641
 20
-84.331008088550007
 30
0.0
  0
VERTEX
  5
D37
  8
DATA
  6
CONTINUOUS
 62
     7
 10
17.180730915439959
 20
-84.44106668229999
 30
0.0
  0
VERTEX
  5
D38
  8
DATA
  6
CONTINUOUS
 62
     7
 10
17.14173247306957
 20
-84.550539338550024
 30
0.0
  0
VERTEX
  5
D39
  8
DATA
  6
CONTINUOUS
 62
     7
 10
17.10317091747245
 20
-84.659426057300038
 30
0.0
  0
VERTEX
  5
D3A
  8
DATA
  6
CONTINUOUS
 62
     7
 10
17.06504624864861
 20
-84.767726838550061
 30
0.0
  0
VERTEX
  5
D3B
  8
DATA
  6
CONTINUOUS
 62
     7
 10
17.027358466598042
 20
-84.87544168230005
 30
0.0
  0
VERTEX
  5
D3C
  8
DATA
  6
CONTINUOUS
 62
     7
 10
16.99010757132076
 20
-84.982570588550061
 30
0.0
  0
VERTEX
  5
D3D
  8
DATA
  6
CONTINUOUS
 62
     7
 10
16.953293562816771
 20
-85.089113557300038
 30
0.0
  0
VERTEX
  5
D3E
  8
DATA
  6
CONTINUOUS
 62
     7
 10
16.916916441086041
 20
-85.195070588550024
 30
0.0
  0
VERTEX
  5
D3F
  8
DATA
  6
CONTINUOUS
 62
     7
 10
16.88097620612859
 20
-85.300441682300047
 30
0.0
  0
VERTEX
  5
D40
  8
DATA
  6
CONTINUOUS
 62
     7
 10
16.845472857944429
 20
-85.40522683855005
 30
0.0
  0
VERTEX
  5
D41
  8
DATA
  6
CONTINUOUS
 62
     7
 10
16.81040639653353
 20
-85.509426057300047
 30
0.0
  0
VERTEX
  5
D42
  8
DATA
  6
CONTINUOUS
 62
     7
 10
16.77577682189591
 20
-85.613039338550067
 30
0.0
  0
VERTEX
  5
D43
  8
DATA
  6
CONTINUOUS
 62
     7
 10
16.741584134031591
 20
-85.716066682300024
 30
0.0
  0
VERTEX
  5
D44
  8
DATA
  6
CONTINUOUS
 62
     7
 10
16.70782833294054
 20
-85.818508088550075
 30
0.0
  0
VERTEX
  5
D45
  8
DATA
  6
CONTINUOUS
 62
     7
 10
16.674509418622751
 20
-85.92036355730005
 30
0.0
  0
VERTEX
  5
D46
  8
DATA
  6
CONTINUOUS
 62
     7
 10
16.641627391078242
 20
-86.021633088550075
 30
0.0
  0
VERTEX
  5
D47
  8
DATA
  6
CONTINUOUS
 62
     7
 10
16.609182250307029
 20
-86.122316682300038
 30
0.0
  0
VERTEX
  5
D48
  8
DATA
  6
CONTINUOUS
 62
     7
 10
16.577173996309099
 20
-86.222414338550067
 30
0.0
  0
VERTEX
  5
D49
  8
DATA
  6
CONTINUOUS
 62
     7
 10
16.545602629084431
 20
-86.321926057300075
 30
0.0
  0
VERTEX
  5
D4A
  8
DATA
  6
CONTINUOUS
 62
     7
 10
16.514468148633039
 20
-86.42085183855005
 30
0.0
  0
VERTEX
  5
D4B
  8
DATA
  6
CONTINUOUS
 62
     7
 10
16.48377055495493
 20
-86.519191682300033
 30
0.0
  0
VERTEX
  5
D4C
  8
DATA
  6
CONTINUOUS
 62
     7
 10
16.4535098480501
 20
-86.616945588550053
 30
0.0
  0
VERTEX
  5
D4D
  8
DATA
  6
CONTINUOUS
 62
     7
 10
16.42368602791856
 20
-86.714113557300038
 30
0.0
  0
VERTEX
  5
D4E
  8
DATA
  6
CONTINUOUS
 62
     7
 10
16.394299094560289
 20
-86.810695588550075
 30
0.0
  0
VERTEX
  5
D4F
  8
DATA
  6
CONTINUOUS
 62
     7
 10
16.365349047975311
 20
-86.90669168230005
 30
0.0
  0
VERTEX
  5
D50
  8
DATA
  6
CONTINUOUS
 62
     7
 10
16.336835888163598
 20
-87.002101838550075
 30
0.0
  0
VERTEX
  5
D51
  8
DATA
  6
CONTINUOUS
 62
     7
 10
16.308759615125169
 20
-87.096926057300024
 30
0.0
  0
VERTEX
  5
D52
  8
DATA
  6
CONTINUOUS
 62
     7
 10
16.281120228860019
 20
-87.191164338550038
 30
0.0
  0
VERTEX
  5
D53
  8
DATA
  6
CONTINUOUS
 62
     7
 10
16.253917729368119
 20
-87.28481668229999
 30
0.0
  0
VERTEX
  5
D54
  8
DATA
  6
CONTINUOUS
 62
     7
 10
16.227152116649521
 20
-87.377883088549979
 30
0.0
  0
VERTEX
  5
D55
  8
DATA
  6
CONTINUOUS
 62
     7
 10
16.200823390704201
 20
-87.47036355729999
 30
0.0
  0
VERTEX
  5
D56
  8
DATA
  6
CONTINUOUS
 62
     7
 10
16.174931551532168
 20
-87.56225808855001
 30
0.0
  0
VERTEX
  5
D57
  8
DATA
  6
CONTINUOUS
 62
     7
 10
16.14947659913339
 20
-87.653566682299981
 30
0.0
  0
VERTEX
  5
D58
  8
DATA
  6
CONTINUOUS
 62
     7
 10
16.124458533507902
 20
-87.74428933854999
 30
0.0
  0
VERTEX
  5
D59
  8
DATA
  6
CONTINUOUS
 62
     7
 10
16.0998773546557
 20
-87.834426057299979
 30
0.0
  0
VERTEX
  5
D5A
  8
DATA
  6
CONTINUOUS
 62
     7
 10
16.075733062576781
 20
-87.923976838549976
 30
0.0
  0
VERTEX
  5
D5B
  8
DATA
  6
CONTINUOUS
 62
     7
 10
16.052025657271109
 20
-88.012941682299996
 30
0.0
  0
VERTEX
  5
D5C
  8
DATA
  6
CONTINUOUS
 62
     7
 10
16.028755138738742
 20
-88.101320588550024
 30
0.0
  0
VERTEX
  5
D5D
  8
DATA
  6
CONTINUOUS
 62
     7
 10
16.00592150697965
 20
-88.189113557300004
 30
0.0
  0
VERTEX
  5
D5E
  8
DATA
  6
CONTINUOUS
 62
     7
 10
15.98352476199382
 20
-88.276320588549979
 30
0.0
  0
VERTEX
  5
D5F
  8
DATA
  6
CONTINUOUS
 62
     7
 10
15.961564903781291
 20
-88.36294168229999
 30
0.0
  0
VERTEX
  5
D60
  8
DATA
  6
CONTINUOUS
 62
     7
 10
15.94004193234203
 20
-88.448976838550053
 30
0.0
  0
VERTEX
  5
D61
  8
DATA
  6
CONTINUOUS
 62
     7
 10
15.91895584767606
 20
-88.534426057300038
 30
0.0
  0
VERTEX
  5
D62
  8
DATA
  6
CONTINUOUS
 62
     7
 10
15.898306649783351
 20
-88.619289338550075
 30
0.0
  0
VERTEX
  5
D63
  8
DATA
  6
CONTINUOUS
 62
     7
 10
15.87809433866393
 20
-88.70356668230005
 30
0.0
  0
VERTEX
  5
D64
  8
DATA
  6
CONTINUOUS
 62
     7
 10
15.85831891431779
 20
-88.787258088550075
 30
0.0
  0
VERTEX
  5
D65
  8
DATA
  6
CONTINUOUS
 62
     7
 10
15.83898037674491
 20
-88.870363557300024
 30
0.0
  0
VERTEX
  5
D66
  8
DATA
  6
CONTINUOUS
 62
     7
 10
15.82007872594532
 20
-88.952883088550067
 30
0.0
  0
VERTEX
  5
D67
  8
DATA
  6
CONTINUOUS
 62
     7
 10
15.80161396191901
 20
-89.034816682299976
 30
0.0
  0
VERTEX
  5
D68
  8
DATA
  6
CONTINUOUS
 62
     7
 10
15.783586084665989
 20
-89.116164338549979
 30
0.0
  0
VERTEX
  5
D69
  8
DATA
  6
CONTINUOUS
 62
     7
 10
15.765995094186239
 20
-89.19692605729999
 30
0.0
  0
VERTEX
  5
D6A
  8
DATA
  6
CONTINUOUS
 62
     7
 10
15.74884099047976
 20
-89.277101838550053
 30
0.0
  0
VERTEX
  5
D6B
  8
DATA
  6
CONTINUOUS
 62
     7
 10
15.73212377354656
 20
-89.356691682300038
 30
0.0
  0
VERTEX
  5
D6C
  8
DATA
  6
CONTINUOUS
 62
     7
 10
15.715843443386641
 20
-89.43569558854999
 30
0.0
  0
VERTEX
  5
D6D
  8
DATA
  6
CONTINUOUS
 62
     7
 10
15.699999999999999
 20
-89.514113557300021
 30
0.0
  0
VERTEX
  5
D6E
  8
DATA
  6
CONTINUOUS
 62
     7
 10
15.68441162109376
 20
-89.592470490893803
 30
0.0
  0
VERTEX
  5
D6F
  8
DATA
  6
CONTINUOUS
 62
     7
 10
15.66889648437499
 20
-89.671291291675004
 30
0.0
  0
VERTEX
  5
D70
  8
DATA
  6
CONTINUOUS
 62
     7
 10
15.65345458984376
 20
-89.750575959643726
 30
0.0
  0
VERTEX
  5
D71
  8
DATA
  6
CONTINUOUS
 62
     7
 10
15.63808593750001
 20
-89.830324494800038
 30
0.0
  0
VERTEX
  5
D72
  8
DATA
  6
CONTINUOUS
 62
     7
 10
15.622790527343749
 20
-89.9105368971438
 30
0.0
  0
VERTEX
  5
D73
  8
DATA
  6
CONTINUOUS
 62
     7
 10
15.607568359374991
 20
-89.991213166675053
 30
0.0
  0
VERTEX
  5
D74
  8
DATA
  6
CONTINUOUS
 62
     7
 10
15.59241943359374
 20
-90.072353303393754
 30
0.0
  0
VERTEX
  5
D75
  8
DATA
  6
CONTINUOUS
 62
     7
 10
15.57734374999999
 20
-90.15395730729999
 30
0.0
  0
VERTEX
  5
D76
  8
DATA
  6
CONTINUOUS
 62
     7
 10
15.56234130859376
 20
-90.236025178393731
 30
0.0
  0
VERTEX
  5
D77
  8
DATA
  6
CONTINUOUS
 62
     7
 10
15.547412109374999
 20
-90.318556916675007
 30
0.0
  0
VERTEX
  5
D78
  8
DATA
  6
CONTINUOUS
 62
     7
 10
15.53255615234376
 20
-90.401552522143746
 30
0.0
  0
VERTEX
  5
D79
  8
DATA
  6
CONTINUOUS
 62
     7
 10
15.51777343750001
 20
-90.485011994799976
 30
0.0
  0
VERTEX
  5
D7A
  8
DATA
  6
CONTINUOUS
 62
     7
 10
15.50306396484376
 20
-90.568935334643768
 30
0.0
  0
VERTEX
  5
D7B
  8
DATA
  6
CONTINUOUS
 62
     7
 10
15.48842773437501
 20
-90.653322541675067
 30
0.0
  0
VERTEX
  5
D7C
  8
DATA
  6
CONTINUOUS
 62
     7
 10
15.473864746093749
 20
-90.7381736158938
 30
0.0
  0
VERTEX
  5
D7D
  8
DATA
  6
CONTINUOUS
 62
     7
 10
15.45937500000001
 20
-90.823488557300053
 30
0.0
  0
VERTEX
  5
D7E
  8
DATA
  6
CONTINUOUS
 62
     7
 10
15.44495849609376
 20
-90.909267365893797
 30
0.0
  0
VERTEX
  5
D7F
  8
DATA
  6
CONTINUOUS
 62
     7
 10
15.43061523437499
 20
-90.995510041675075
 30
0.0
  0
VERTEX
  5
D80
  8
DATA
  6
CONTINUOUS
 62
     7
 10
15.41634521484376
 20
-91.082216584643774
 30
0.0
  0
VERTEX
  5
D81
  8
DATA
  6
CONTINUOUS
 62
     7
 10
15.402148437499999
 20
-91.16938699480005
 30
0.0
  0
VERTEX
  5
D82
  8
DATA
  6
CONTINUOUS
 62
     7
 10
15.38802490234376
 20
-91.257021272143788
 30
0.0
  0
VERTEX
  5
D83
  8
DATA
  6
CONTINUOUS
 62
     7
 10
15.37397460937499
 20
-91.345119416675075
 30
0.0
  0
VERTEX
  5
D84
  8
DATA
  6
CONTINUOUS
 62
     7
 10
15.35999755859374
 20
-91.433681428393783
 30
0.0
  0
VERTEX
  5
D85
  8
DATA
  6
CONTINUOUS
 62
     7
 10
15.346093749999991
 20
-91.522707307300053
 30
0.0
  0
VERTEX
  5
D86
  8
DATA
  6
CONTINUOUS
 62
     7
 10
15.332263183593749
 20
-91.6121970533938
 30
0.0
  0
VERTEX
  5
D87
  8
DATA
  6
CONTINUOUS
 62
     7
 10
15.318505859374991
 20
-91.702150666675053
 30
0.0
  0
VERTEX
  5
D88
  8
DATA
  6
CONTINUOUS
 62
     7
 10
15.304821777343751
 20
-91.792568147143754
 30
0.0
  0
VERTEX
  5
D89
  8
DATA
  6
CONTINUOUS
 62
     7
 10
15.29121093749999
 20
-91.88344949479999
 30
0.0
  0
VERTEX
  5
D8A
  8
DATA
  6
CONTINUOUS
 62
     7
 10
15.27767333984376
 20
-91.974794709643717
 30
0.0
  0
VERTEX
  5
D8B
  8
DATA
  6
CONTINUOUS
 62
     7
 10
15.264208984374999
 20
-92.066603791675007
 30
0.0
  0
VERTEX
  5
D8C
  8
DATA
  6
CONTINUOUS
 62
     7
 10
15.25081787109376
 20
-92.158876740893731
 30
0.0
  0
VERTEX
  5
D8D
  8
DATA
  6
CONTINUOUS
 62
     7
 10
15.23749999999999
 20
-92.251613557300004
 30
0.0
  0
VERTEX
  5
D8E
  8
DATA
  6
CONTINUOUS
 62
     7
 10
15.224255371093751
 20
-92.344814240893768
 30
0.0
  0
VERTEX
  5
D8F
  8
DATA
  6
CONTINUOUS
 62
     7
 10
15.211083984374991
 20
-92.438478791674996
 30
0.0
  0
VERTEX
  5
D90
  8
DATA
  6
CONTINUOUS
 62
     7
 10
15.197985839843749
 20
-92.532607209643729
 30
0.0
  0
VERTEX
  5
D91
  8
DATA
  6
CONTINUOUS
 62
     7
 10
15.1849609375
 20
-92.627199494799996
 30
0.0
  0
VERTEX
  5
D92
  8
DATA
  6
CONTINUOUS
 62
     7
 10
15.17200927734376
 20
-92.722255647143726
 30
0.0
  0
VERTEX
  5
D93
  8
DATA
  6
CONTINUOUS
 62
     7
 10
15.15913085937499
 20
-92.817775666674976
 30
0.0
  0
VERTEX
  5
D94
  8
DATA
  6
CONTINUOUS
 62
     7
 10
15.14632568359376
 20
-92.913759553393746
 30
0.0
  0
VERTEX
  5
D95
  8
DATA
  6
CONTINUOUS
 62
     7
 10
15.133593749999999
 20
-93.010207307300007
 30
0.0
  0
VERTEX
  5
D96
  8
DATA
  6
CONTINUOUS
 62
     7
 10
15.12093505859376
 20
-93.107118928393731
 30
0.0
  0
VERTEX
  5
D97
  8
DATA
  6
CONTINUOUS
 62
     7
 10
15.10834960937499
 20
-93.20449441667499
 30
0.0
  0
VERTEX
  5
D98
  8
DATA
  6
CONTINUOUS
 62
     7
 10
15.09583740234376
 20
-93.302333772143726
 30
0.0
  0
VERTEX
  5
D99
  8
DATA
  6
CONTINUOUS
 62
     7
 10
15.08339843750001
 20
-93.400636994799981
 30
0.0
  0
VERTEX
  5
D9A
  8
DATA
  6
CONTINUOUS
 62
     7
 10
15.071032714843749
 20
-93.499404084643729
 30
0.0
  0
VERTEX
  5
D9B
  8
DATA
  6
CONTINUOUS
 62
     7
 10
15.05874023437501
 20
-93.598635041674996
 30
0.0
  0
VERTEX
  5
D9C
  8
DATA
  6
CONTINUOUS
 62
     7
 10
15.04652099609376
 20
-93.698329865893768
 30
0.0
  0
VERTEX
  5
D9D
  8
DATA
  6
CONTINUOUS
 62
     7
 10
15.03437500000001
 20
-93.79848855729999
 30
0.0
  0
VERTEX
  5
D9E
  8
DATA
  6
CONTINUOUS
 62
     7
 10
15.02230224609376
 20
-93.899111115893731
 30
0.0
  0
VERTEX
  5
D9F
  8
DATA
  6
CONTINUOUS
 62
     7
 10
15.010302734374999
 20
-94.000197541675007
 30
0.0
  0
VERTEX
  5
DA0
  8
DATA
  6
CONTINUOUS
 62
     7
 10
14.99837646484376
 20
-94.101747834643731
 30
0.0
  0
VERTEX
  5
DA1
  8
DATA
  6
CONTINUOUS
 62
     7
 10
14.98652343750001
 20
-94.20376199479999
 30
0.0
  0
VERTEX
  5
DA2
  8
DATA
  6
CONTINUOUS
 62
     7
 10
14.97474365234376
 20
-94.306240022143768
 30
0.0
  0
VERTEX
  5
DA3
  8
DATA
  6
CONTINUOUS
 62
     7
 10
14.96303710937501
 20
-94.409181916674996
 30
0.0
  0
VERTEX
  5
DA4
  8
DATA
  6
CONTINUOUS
 62
     7
 10
14.951403808593749
 20
-94.512587678393729
 30
0.0
  0
VERTEX
  5
DA5
  8
DATA
  6
CONTINUOUS
 62
     7
 10
14.93984375000001
 20
-94.616457307299996
 30
0.0
  0
VERTEX
  5
DA6
  8
DATA
  6
CONTINUOUS
 62
     7
 10
14.92835693359376
 20
-94.720790803393754
 30
0.0
  0
VERTEX
  5
DA7
  8
DATA
  6
CONTINUOUS
 62
     7
 10
14.91694335937499
 20
-94.82558816667499
 30
0.0
  0
VERTEX
  5
DA8
  8
DATA
  6
CONTINUOUS
 62
     7
 10
14.90560302734376
 20
-94.930849397143731
 30
0.0
  0
VERTEX
  5
DA9
  8
DATA
  6
CONTINUOUS
 62
     7
 10
14.894335937499999
 20
-95.036574494800007
 30
0.0
  0
VERTEX
  5
DAA
  8
DATA
  6
CONTINUOUS
 62
     7
 10
14.88314208984376
 20
-95.142763459643746
 30
0.0
  0
VERTEX
  5
DAB
  8
DATA
  6
CONTINUOUS
 62
     7
 10
14.87202148437499
 20
-95.249416291674976
 30
0.0
  0
VERTEX
  5
DAC
  8
DATA
  6
CONTINUOUS
 62
     7
 10
14.86097412109376
 20
-95.356532990893768
 30
0.0
  0
VERTEX
  5
DAD
  8
DATA
  6
CONTINUOUS
 62
     7
 10
14.85000000000001
 20
-95.464113557299996
 30
0.0
  0
VERTEX
  5
DAE
  8
DATA
  6
CONTINUOUS
 62
     7
 10
14.83914794921875
 20
-95.573212886335867
 30
0.0
  0
VERTEX
  5
DAF
  8
DATA
  6
CONTINUOUS
 62
     7
 10
14.82846679687502
 20
-95.684885873443349
 30
0.0
  0
VERTEX
  5
DB0
  8
DATA
  6
CONTINUOUS
 62
     7
 10
14.81795654296876
 20
-95.799132518622514
 30
0.0
  0
VERTEX
  5
DB1
  8
DATA
  6
CONTINUOUS
 62
     7
 10
14.807617187500011
 20
-95.915952821873361
 30
0.0
  0
VERTEX
  5
DB2
  8
DATA
  6
CONTINUOUS
 62
     7
 10
14.79744873046876
 20
-96.035346783195877
 30
0.0
  0
VERTEX
  5
DB3
  8
DATA
  6
CONTINUOUS
 62
     7
 10
14.78745117187502
 20
-96.157314402590046
 30
0.0
  0
VERTEX
  5
DB4
  8
DATA
  6
CONTINUOUS
 62
     7
 10
14.77762451171875
 20
-96.281855680055926
 30
0.0
  0
VERTEX
  5
DB5
  8
DATA
  6
CONTINUOUS
 62
     7
 10
14.76796875
 20
-96.408970615593432
 30
0.0
  0
VERTEX
  5
DB6
  8
DATA
  6
CONTINUOUS
 62
     7
 10
14.758483886718761
 20
-96.538659209202606
 30
0.0
  0
VERTEX
  5
DB7
  8
DATA
  6
CONTINUOUS
 62
     7
 10
14.749169921875
 20
-96.670921460883449
 30
0.0
  0
VERTEX
  5
DB8
  8
DATA
  6
CONTINUOUS
 62
     7
 10
14.74002685546875
 20
-96.805757370635931
 30
0.0
  0
VERTEX
  5
DB9
  8
DATA
  6
CONTINUOUS
 62
     7
 10
14.7310546875
 20
-96.943166938460124
 30
0.0
  0
VERTEX
  5
DBA
  8
DATA
  6
CONTINUOUS
 62
     7
 10
14.72225341796876
 20
-97.083150164356027
 30
0.0
  0
VERTEX
  5
DBB
  8
DATA
  6
CONTINUOUS
 62
     7
 10
14.713623046875011
 20
-97.225707048323486
 30
0.0
  0
VERTEX
  5
DBC
  8
DATA
  6
CONTINUOUS
 62
     7
 10
14.70516357421876
 20
-97.370837590362726
 30
0.0
  0
VERTEX
  5
DBD
  8
DATA
  6
CONTINUOUS
 62
     7
 10
14.696875
 20
-97.518541790473563
 30
0.0
  0
VERTEX
  5
DBE
  8
DATA
  6
CONTINUOUS
 62
     7
 10
14.68875732421875
 20
-97.668819648656097
 30
0.0
  0
VERTEX
  5
DBF
  8
DATA
  6
CONTINUOUS
 62
     7
 10
14.680810546875
 20
-97.821671164910285
 30
0.0
  0
VERTEX
  5
DC0
  8
DATA
  6
CONTINUOUS
 62
     7
 10
14.673034667968761
 20
-97.977096339236155
 30
0.0
  0
VERTEX
  5
DC1
  8
DATA
  6
CONTINUOUS
 62
     7
 10
14.6654296875
 20
-98.135095171633708
 30
0.0
  0
VERTEX
  5
DC2
  8
DATA
  6
CONTINUOUS
 62
     7
 10
14.65799560546875
 20
-98.295667662102872
 30
0.0
  0
VERTEX
  5
DC3
  8
DATA
  6
CONTINUOUS
 62
     7
 10
14.65073242187502
 20
-98.458813810643775
 30
0.0
  0
VERTEX
  5
DC4
  8
DATA
  6
CONTINUOUS
 62
     7
 10
14.64364013671876
 20
-98.624533617256304
 30
0.0
  0
VERTEX
  5
DC5
  8
DATA
  6
CONTINUOUS
 62
     7
 10
14.636718750000011
 20
-98.792827081940516
 30
0.0
  0
VERTEX
  5
DC6
  8
DATA
  6
CONTINUOUS
 62
     7
 10
14.62996826171876
 20
-98.963694204696409
 30
0.0
  0
VERTEX
  5
DC7
  8
DATA
  6
CONTINUOUS
 62
     7
 10
14.62338867187502
 20
-99.137134985523929
 30
0.0
  0
VERTEX
  5
DC8
  8
DATA
  6
CONTINUOUS
 62
     7
 10
14.61697998046875
 20
-99.313149424423173
 30
0.0
  0
VERTEX
  5
DC9
  8
DATA
  6
CONTINUOUS
 62
     7
 10
14.61074218750001
 20
-99.491737521394043
 30
0.0
  0
VERTEX
  5
DCA
  8
DATA
  6
CONTINUOUS
 62
     7
 10
14.604675292968761
 20
-99.672899276436596
 30
0.0
  0
VERTEX
  5
DCB
  8
DATA
  6
CONTINUOUS
 62
     7
 10
14.598779296875019
 20
-99.856634689550816
 30
0.0
  0
VERTEX
  5
DCC
  8
DATA
  6
CONTINUOUS
 62
     7
 10
14.59305419921877
 20
-100.0429437607367
 30
0.0
  0
VERTEX
  5
DCD
  8
DATA
  6
CONTINUOUS
 62
     7
 10
14.58750000000002
 20
-100.23182648999421
 30
0.0
  0
VERTEX
  5
DCE
  8
DATA
  6
CONTINUOUS
 62
     7
 10
14.58211669921876
 20
-100.4232828773234
 30
0.0
  0
VERTEX
  5
DCF
  8
DATA
  6
CONTINUOUS
 62
     7
 10
14.576904296875011
 20
-100.61731292272439
 30
0.0
  0
VERTEX
  5
DD0
  8
DATA
  6
CONTINUOUS
 62
     7
 10
14.57186279296876
 20
-100.8139166261969
 30
0.0
  0
VERTEX
  5
DD1
  8
DATA
  6
CONTINUOUS
 62
     7
 10
14.56699218750002
 20
-101.0130939877411
 30
0.0
  0
VERTEX
  5
DD2
  8
DATA
  6
CONTINUOUS
 62
     7
 10
14.56229248046877
 20
-101.2148450073571
 30
0.0
  0
VERTEX
  5
DD3
  8
DATA
  6
CONTINUOUS
 62
     7
 10
14.557763671875019
 20
-101.41916968504459
 30
0.0
  0
VERTEX
  5
DD4
  8
DATA
  6
CONTINUOUS
 62
     7
 10
14.553405761718761
 20
-101.6260680208038
 30
0.0
  0
VERTEX
  5
DD5
  8
DATA
  6
CONTINUOUS
 62
     7
 10
14.549218750000019
 20
-101.8355400146347
 30
0.0
  0
VERTEX
  5
DD6
  8
DATA
  6
CONTINUOUS
 62
     7
 10
14.54520263671877
 20
-102.0475856665373
 30
0.0
  0
VERTEX
  5
DD7
  8
DATA
  6
CONTINUOUS
 62
     7
 10
14.54135742187502
 20
-102.2622049765116
 30
0.0
  0
VERTEX
  5
DD8
  8
DATA
  6
CONTINUOUS
 62
     7
 10
14.53768310546876
 20
-102.4793979445576
 30
0.0
  0
VERTEX
  5
DD9
  8
DATA
  6
CONTINUOUS
 62
     7
 10
14.534179687500011
 20
-102.69916457067499
 30
0.0
  0
VERTEX
  5
DDA
  8
DATA
  6
CONTINUOUS
 62
     7
 10
14.53084716796876
 20
-102.9215048548643
 30
0.0
  0
VERTEX
  5
DDB
  8
DATA
  6
CONTINUOUS
 62
     7
 10
14.52768554687502
 20
-103.14641879712519
 30
0.0
  0
VERTEX
  5
DDC
  8
DATA
  6
CONTINUOUS
 62
     7
 10
14.52469482421875
 20
-103.3739063974578
 30
0.0
  0
VERTEX
  5
DDD
  8
DATA
  6
CONTINUOUS
 62
     7
 10
14.52187500000001
 20
-103.60396765586211
 30
0.0
  0
VERTEX
  5
DDE
  8
DATA
  6
CONTINUOUS
 62
     7
 10
14.519226074218761
 20
-103.83660257233799
 30
0.0
  0
VERTEX
  5
DDF
  8
DATA
  6
CONTINUOUS
 62
     7
 10
14.51674804687501
 20
-104.07181114688559
 30
0.0
  0
VERTEX
  5
DE0
  8
DATA
  6
CONTINUOUS
 62
     7
 10
14.51444091796875
 20
-104.3095933795049
 30
0.0
  0
VERTEX
  5
DE1
  8
DATA
  6
CONTINUOUS
 62
     7
 10
14.5123046875
 20
-104.5499492701958
 30
0.0
  0
VERTEX
  5
DE2
  8
DATA
  6
CONTINUOUS
 62
     7
 10
14.51033935546876
 20
-104.7928788189584
 30
0.0
  0
VERTEX
  5
DE3
  8
DATA
  6
CONTINUOUS
 62
     7
 10
14.508544921875011
 20
-105.0383820257926
 30
0.0
  0
VERTEX
  5
DE4
  8
DATA
  6
CONTINUOUS
 62
     7
 10
14.50692138671876
 20
-105.2864588906986
 30
0.0
  0
VERTEX
  5
DE5
  8
DATA
  6
CONTINUOUS
 62
     7
 10
14.50546875000002
 20
-105.53710941367621
 30
0.0
  0
VERTEX
  5
DE6
  8
DATA
  6
CONTINUOUS
 62
     7
 10
14.50418701171877
 20
-105.7903335947255
 30
0.0
  0
VERTEX
  5
DE7
  8
DATA
  6
CONTINUOUS
 62
     7
 10
14.503076171875019
 20
-106.0461314338464
 30
0.0
  0
VERTEX
  5
DE8
  8
DATA
  6
CONTINUOUS
 62
     7
 10
14.502136230468761
 20
-106.304502931039
 30
0.0
  0
VERTEX
  5
DE9
  8
DATA
  6
CONTINUOUS
 62
     7
 10
14.5013671875
 20
-106.56544808630331
 30
0.0
  0
VERTEX
  5
DEA
  8
DATA
  6
CONTINUOUS
 62
     7
 10
14.50076904296875
 20
-106.8289668996392
 30
0.0
  0
VERTEX
  5
DEB
  8
DATA
  6
CONTINUOUS
 62
     7
 10
14.50034179687502
 20
-107.0950593710469
 30
0.0
  0
VERTEX
  5
DEC
  8
DATA
  6
CONTINUOUS
 62
     7
 10
14.50008544921876
 20
-107.3637255005262
 30
0.0
  0
VERTEX
  5
DED
  8
DATA
  6
CONTINUOUS
 62
     7
 10
14.500000000000011
 20
-107.6349652880771
 30
0.0
  0
VERTEX
  5
DEE
  8
DATA
  6
CONTINUOUS
 62
     7
 10
14.500000000000011
 20
-107.6349652880771
 30
0.0
  0
SEQEND
  5
DEF
  8
DATA
  6
CONTINUOUS
 62
     7
  0
POLYLINE
  5
5AF
  8
DATA
  6
CONTINUOUS
 62
     7
 66
     1
 10
0.0
 20
0.0
 30
0.0
 70
   128
  0
VERTEX
  5
DF0
  8
DATA
  6
CONTINUOUS
 62
     7
 10
36.804288655293171
 20
-56.714113557300003
 30
0.0
  0
VERTEX
  5
DF1
  8
DATA
  6
CONTINUOUS
 62
     7
 10
36.518352459193991
 20
-56.925453889331273
 30
0.0
  0
VERTEX
  5
DF2
  8
DATA
  6
CONTINUOUS
 62
     7
 10
36.235811911852281
 20
-57.134474885424993
 30
0.0
  0
VERTEX
  5
DF3
  8
DATA
  6
CONTINUOUS
 62
     7
 10
35.956667013268053
 20
-57.341176545581249
 30
0.0
  0
VERTEX
  5
DF4
  8
DATA
  6
CONTINUOUS
 62
     7
 10
35.680917763441258
 20
-57.545558869799997
 30
0.0
  0
VERTEX
  5
DF5
  8
DATA
  6
CONTINUOUS
 62
     7
 10
35.40856416237196
 20
-57.747621858081253
 30
0.0
  0
VERTEX
  5
DF6
  8
DATA
  6
CONTINUOUS
 62
     7
 10
35.139606210060109
 20
-57.947365510425023
 30
0.0
  0
VERTEX
  5
DF7
  8
DATA
  6
CONTINUOUS
 62
     7
 10
34.874043906505761
 20
-58.144789826831271
 30
0.0
  0
VERTEX
  5
DF8
  8
DATA
  6
CONTINUOUS
 62
     7
 10
34.61187725170884
 20
-58.339894807300027
 30
0.0
  0
VERTEX
  5
DF9
  8
DATA
  6
CONTINUOUS
 62
     7
 10
34.353106245669402
 20
-58.532680451831283
 30
0.0
  0
VERTEX
  5
DFA
  8
DATA
  6
CONTINUOUS
 62
     7
 10
34.097730888387417
 20
-58.723146760425038
 30
0.0
  0
VERTEX
  5
DFB
  8
DATA
  6
CONTINUOUS
 62
     7
 10
33.84575117986293
 20
-58.911293733081273
 30
0.0
  0
VERTEX
  5
DFC
  8
DATA
  6
CONTINUOUS
 62
     7
 10
33.597167120095889
 20
-59.097121369800021
 30
0.0
  0
VERTEX
  5
DFD
  8
DATA
  6
CONTINUOUS
 62
     7
 10
33.351978709086332
 20
-59.280629670581277
 30
0.0
  0
VERTEX
  5
DFE
  8
DATA
  6
CONTINUOUS
 62
     7
 10
33.110185946834221
 20
-59.461818635424997
 30
0.0
  0
VERTEX
  5
DFF
  8
DATA
  6
CONTINUOUS
 62
     7
 10
32.871788833339572
 20
-59.640688264331253
 30
0.0
  0
VERTEX
  5
E00
  8
DATA
  6
CONTINUOUS
 62
     7
 10
32.636787368602413
 20
-59.817238557300023
 30
0.0
  0
VERTEX
  5
E01
  8
DATA
  6
CONTINUOUS
 62
     7
 10
32.405181552622722
 20
-59.991469514331271
 30
0.0
  0
VERTEX
  5
E02
  8
DATA
  6
CONTINUOUS
 62
     7
 10
32.176971385400492
 20
-60.163381135425027
 30
0.0
  0
VERTEX
  5
E03
  8
DATA
  6
CONTINUOUS
 62
     7
 10
31.95215686693572
 20
-60.332973420581247
 30
0.0
  0
VERTEX
  5
E04
  8
DATA
  6
CONTINUOUS
 62
     7
 10
31.730737997228431
 20
-60.500246369800003
 30
0.0
  0
VERTEX
  5
E05
  8
DATA
  6
CONTINUOUS
 62
     7
 10
31.5127147762786
 20
-60.665199983081273
 30
0.0
  0
VERTEX
  5
E06
  8
DATA
  6
CONTINUOUS
 62
     7
 10
31.29808720408624
 20
-60.827834260424993
 30
0.0
  0
VERTEX
  5
E07
  8
DATA
  6
CONTINUOUS
 62
     7
 10
31.086855280651331
 20
-60.988149201831249
 30
0.0
  0
VERTEX
  5
E08
  8
DATA
  6
CONTINUOUS
 62
     7
 10
30.87901900597392
 20
-61.146144807299997
 30
0.0
  0
VERTEX
  5
E09
  8
DATA
  6
CONTINUOUS
 62
     7
 10
30.674578380053958
 20
-61.301821076831253
 30
0.0
  0
VERTEX
  5
E0A
  8
DATA
  6
CONTINUOUS
 62
     7
 10
30.473533402891452
 20
-61.455178010425023
 30
0.0
  0
VERTEX
  5
E0B
  8
DATA
  6
CONTINUOUS
 62
     7
 10
30.275884074486431
 20
-61.606215608081271
 30
0.0
  0
VERTEX
  5
E0C
  8
DATA
  6
CONTINUOUS
 62
     7
 10
30.081630394838871
 20
-61.754933869800027
 30
0.0
  0
VERTEX
  5
E0D
  8
DATA
  6
CONTINUOUS
 62
     7
 10
29.890772363948791
 20
-61.901332795581283
 30
0.0
  0
VERTEX
  5
E0E
  8
DATA
  6
CONTINUOUS
 62
     7
 10
29.703309981816151
 20
-62.045412385425038
 30
0.0
  0
VERTEX
  5
E0F
  8
DATA
  6
CONTINUOUS
 62
     7
 10
29.51924324844099
 20
-62.187172639331273
 30
0.0
  0
VERTEX
  5
E10
  8
DATA
  6
CONTINUOUS
 62
     7
 10
29.338572163823301
 20
-62.326613557300021
 30
0.0
  0
VERTEX
  5
E11
  8
DATA
  6
CONTINUOUS
 62
     7
 10
29.16129672796308
 20
-62.463735139331291
 30
0.0
  0
VERTEX
  5
E12
  8
DATA
  6
CONTINUOUS
 62
     7
 10
28.987416940860331
 20
-62.598537385424997
 30
0.0
  0
VERTEX
  5
E13
  8
DATA
  6
CONTINUOUS
 62
     7
 10
28.816932802515041
 20
-62.731020295581253
 30
0.0
  0
VERTEX
  5
E14
  8
DATA
  6
CONTINUOUS
 62
     7
 10
28.649844312927211
 20
-62.861183869800023
 30
0.0
  0
VERTEX
  5
E15
  8
DATA
  6
CONTINUOUS
 62
     7
 10
28.486151472096871
 20
-62.989028108081271
 30
0.0
  0
VERTEX
  5
E16
  8
DATA
  6
CONTINUOUS
 62
     7
 10
28.325854280023972
 20
-63.114553010425027
 30
0.0
  0
VERTEX
  5
E17
  8
DATA
  6
CONTINUOUS
 62
     7
 10
28.168952736708562
 20
-63.237758576831283
 30
0.0
  0
VERTEX
  5
E18
  8
DATA
  6
CONTINUOUS
 62
     7
 10
28.01544684215061
 20
-63.358644807300053
 30
0.0
  0
VERTEX
  5
E19
  8
DATA
  6
CONTINUOUS
 62
     7
 10
27.865336596350129
 20
-63.477211701831287
 30
0.0
  0
VERTEX
  5
E1A
  8
DATA
  6
CONTINUOUS
 62
     7
 10
27.718621999307121
 20
-63.593459260425043
 30
0.0
  0
VERTEX
  5
E1B
  8
DATA
  6
CONTINUOUS
 62
     7
 10
27.575303051021582
 20
-63.707387483081277
 30
0.0
  0
VERTEX
  5
E1C
  8
DATA
  6
CONTINUOUS
 62
     7
 10
27.435379751493478
 20
-63.818996369800033
 30
0.0
  0
VERTEX
  5
E1D
  8
DATA
  6
CONTINUOUS
 62
     7
 10
27.298852100722868
 20
-63.928285920581303
 30
0.0
  0
VERTEX
  5
E1E
  8
DATA
  6
CONTINUOUS
 62
     7
 10
27.16572009870972
 20
-64.03525613542503
 30
0.0
  0
VERTEX
  5
E1F
  8
DATA
  6
CONTINUOUS
 62
     7
 10
27.03598374545405
 20
-64.139907014331271
 30
0.0
  0
VERTEX
  5
E20
  8
DATA
  6
CONTINUOUS
 62
     7
 10
26.909643040955832
 20
-64.242238557300027
 30
0.0
  0
VERTEX
  5
E21
  8
DATA
  6
CONTINUOUS
 62
     7
 10
26.786697985215081
 20
-64.342250764331283
 30
0.0
  0
VERTEX
  5
E22
  8
DATA
  6
CONTINUOUS
 62
     7
 10
26.66714857823181
 20
-64.439943635425038
 30
0.0
  0
VERTEX
  5
E23
  8
DATA
  6
CONTINUOUS
 62
     7
 10
26.55099482000599
 20
-64.53531717058128
 30
0.0
  0
VERTEX
  5
E24
  8
DATA
  6
CONTINUOUS
 62
     7
 10
26.438236710537652
 20
-64.628371369800021
 30
0.0
  0
VERTEX
  5
E25
  8
DATA
  6
CONTINUOUS
 62
     7
 10
26.328874249826789
 20
-64.719106233081277
 30
0.0
  0
VERTEX
  5
E26
  8
DATA
  6
CONTINUOUS
 62
     7
 10
26.222907437873371
 20
-64.807521760425004
 30
0.0
  0
VERTEX
  5
E27
  8
DATA
  6
CONTINUOUS
 62
     7
 10
26.120336274677449
 20
-64.89361795183126
 30
0.0
  0
VERTEX
  5
E28
  8
DATA
  6
CONTINUOUS
 62
     7
 10
26.021160760238971
 20
-64.97739480730003
 30
0.0
  0
VERTEX
  5
E29
  8
DATA
  6
CONTINUOUS
 62
     7
 10
25.925380894557961
 20
-65.058852326831271
 30
0.0
  0
VERTEX
  5
E2A
  8
DATA
  6
CONTINUOUS
 62
     7
 10
25.83299667763443
 20
-65.137990510425027
 30
0.0
  0
VERTEX
  5
E2B
  8
DATA
  6
CONTINUOUS
 62
     7
 10
25.744008109468371
 20
-65.21480935808124
 30
0.0
  0
VERTEX
  5
E2C
  8
DATA
  6
CONTINUOUS
 62
     7
 10
25.65841519005977
 20
-65.28930886980001
 30
0.0
  0
VERTEX
  5
E2D
  8
DATA
  6
CONTINUOUS
 62
     7
 10
25.57621791940862
 20
-65.36148904558128
 30
0.0
  0
VERTEX
  5
E2E
  8
DATA
  6
CONTINUOUS
 62
     7
 10
25.497416297514938
 20
-65.431349885424993
 30
0.0
  0
VERTEX
  5
E2F
  8
DATA
  6
CONTINUOUS
 62
     7
 10
25.42201032437875
 20
-65.498891389331234
 30
0.0
  0
VERTEX
  5
E30
  8
DATA
  6
CONTINUOUS
 62
     7
 10
25.350000000000009
 20
-65.56411355729999
 30
0.0
  0
VERTEX
  5
E31
  8
DATA
  6
CONTINUOUS
 62
     7
 10
25.279553222656261
 20
-65.62866433855001
 30
0.0
  0
VERTEX
  5
E32
  8
DATA
  6
CONTINUOUS
 62
     7
 10
25.208837890625009
 20
-65.69419168230003
 30
0.0
  0
VERTEX
  5
E33
  8
DATA
  6
CONTINUOUS
 62
     7
 10
25.137854003906259
 20
-65.760695588549993
 30
0.0
  0
VERTEX
  5
E34
  8
DATA
  6
CONTINUOUS
 62
     7
 10
25.066601562500011
 20
-65.828176057299984
 30
0.0
  0
VERTEX
  5
E35
  8
DATA
  6
CONTINUOUS
 62
     7
 10
24.995080566406259
 20
-65.89663308854999
 30
0.0
  0
VERTEX
  5
E36
  8
DATA
  6
CONTINUOUS
 62
     7
 10
24.923291015625011
 20
-65.966066682299981
 30
0.0
  0
VERTEX
  5
E37
  8
DATA
  6
CONTINUOUS
 62
     7
 10
24.851232910156259
 20
-66.036476838550001
 30
0.0
  0
VERTEX
  5
E38
  8
DATA
  6
CONTINUOUS
 62
     7
 10
24.778906250000009
 20
-66.107863557299993
 30
0.0
  0
VERTEX
  5
E39
  8
DATA
  6
CONTINUOUS
 62
     7
 10
24.706311035156261
 20
-66.180226838549999
 30
0.0
  0
VERTEX
  5
E3A
  8
DATA
  6
CONTINUOUS
 62
     7
 10
24.633447265625009
 20
-66.25356668229999
 30
0.0
  0
VERTEX
  5
E3B
  8
DATA
  6
CONTINUOUS
 62
     7
 10
24.560314941406261
 20
-66.32788308855001
 30
0.0
  0
VERTEX
  5
E3C
  8
DATA
  6
CONTINUOUS
 62
     7
 10
24.486914062500009
 20
-66.40317605730003
 30
0.0
  0
VERTEX
  5
E3D
  8
DATA
  6
CONTINUOUS
 62
     7
 10
24.413244628906259
 20
-66.479445588550021
 30
0.0
  0
VERTEX
  5
E3E
  8
DATA
  6
CONTINUOUS
 62
     7
 10
24.339306640625011
 20
-66.556691682300027
 30
0.0
  0
VERTEX
  5
E3F
  8
DATA
  6
CONTINUOUS
 62
     7
 10
24.265100097656259
 20
-66.63491433854999
 30
0.0
  0
VERTEX
  5
E40
  8
DATA
  6
CONTINUOUS
 62
     7
 10
24.190625000000011
 20
-66.714113557299996
 30
0.0
  0
VERTEX
  5
E41
  8
DATA
  6
CONTINUOUS
 62
     7
 10
24.115881347656259
 20
-66.79428933855003
 30
0.0
  0
VERTEX
  5
E42
  8
DATA
  6
CONTINUOUS
 62
     7
 10
24.040869140625009
 20
-66.875441682299993
 30
0.0
  0
VERTEX
  5
E43
  8
DATA
  6
CONTINUOUS
 62
     7
 10
23.965588378906261
 20
-66.957570588549999
 30
0.0
  0
VERTEX
  5
E44
  8
DATA
  6
CONTINUOUS
 62
     7
 10
23.890039062500009
 20
-67.04067605729999
 30
0.0
  0
VERTEX
  5
E45
  8
DATA
  6
CONTINUOUS
 62
     7
 10
23.814221191406261
 20
-67.12475808855001
 30
0.0
  0
VERTEX
  5
E46
  8
DATA
  6
CONTINUOUS
 62
     7
 10
23.738134765625009
 20
-67.209816682300016
 30
0.0
  0
VERTEX
  5
E47
  8
DATA
  6
CONTINUOUS
 62
     7
 10
23.661779785156259
 20
-67.295851838550021
 30
0.0
  0
VERTEX
  5
E48
  8
DATA
  6
CONTINUOUS
 62
     7
 10
23.585156250000011
 20
-67.382863557300027
 30
0.0
  0
VERTEX
  5
E49
  8
DATA
  6
CONTINUOUS
 62
     7
 10
23.508264160156259
 20
-67.470851838550033
 30
0.0
  0
VERTEX
  5
E4A
  8
DATA
  6
CONTINUOUS
 62
     7
 10
23.431103515625011
 20
-67.559816682300038
 30
0.0
  0
VERTEX
  5
E4B
  8
DATA
  6
CONTINUOUS
 62
     7
 10
23.353674316406259
 20
-67.64975808855003
 30
0.0
  0
VERTEX
  5
E4C
  8
DATA
  6
CONTINUOUS
 62
     7
 10
23.275976562500009
 20
-67.740676057300021
 30
0.0
  0
VERTEX
  5
E4D
  8
DATA
  6
CONTINUOUS
 62
     7
 10
23.198010253906261
 20
-67.832570588550027
 30
0.0
  0
VERTEX
  5
E4E
  8
DATA
  6
CONTINUOUS
 62
     7
 10
23.119775390625009
 20
-67.92544168229999
 30
0.0
  0
VERTEX
  5
E4F
  8
DATA
  6
CONTINUOUS
 62
     7
 10
23.041271972656261
 20
-68.01928933855001
 30
0.0
  0
VERTEX
  5
E50
  8
DATA
  6
CONTINUOUS
 62
     7
 10
22.962500000000009
 20
-68.11411355730003
 30
0.0
  0
VERTEX
  5
E51
  8
DATA
  6
CONTINUOUS
 62
     7
 10
22.883459472656259
 20
-68.209914338550021
 30
0.0
  0
VERTEX
  5
E52
  8
DATA
  6
CONTINUOUS
 62
     7
 10
22.804150390625011
 20
-68.306691682300027
 30
0.0
  0
VERTEX
  5
E53
  8
DATA
  6
CONTINUOUS
 62
     7
 10
22.724572753906259
 20
-68.40444558854999
 30
0.0
  0
VERTEX
  5
E54
  8
DATA
  6
CONTINUOUS
 62
     7
 10
22.644726562500011
 20
-68.50317605730001
 30
0.0
  0
VERTEX
  5
E55
  8
DATA
  6
CONTINUOUS
 62
     7
 10
22.564611816406249
 20
-68.60288308855003
 30
0.0
  0
VERTEX
  5
E56
  8
DATA
  6
CONTINUOUS
 62
     7
 10
22.484228515625009
 20
-68.703566682299993
 30
0.0
  0
VERTEX
  5
E57
  8
DATA
  6
CONTINUOUS
 62
     7
 10
22.403576660156261
 20
-68.805226838549999
 30
0.0
  0
VERTEX
  5
E58
  8
DATA
  6
CONTINUOUS
 62
     7
 10
22.322656250000009
 20
-68.90786355729999
 30
0.0
  0
VERTEX
  5
E59
  8
DATA
  6
CONTINUOUS
 62
     7
 10
22.241467285156261
 20
-69.011476838549996
 30
0.0
  0
VERTEX
  5
E5A
  8
DATA
  6
CONTINUOUS
 62
     7
 10
22.160009765625009
 20
-69.11606668230003
 30
0.0
  0
VERTEX
  5
E5B
  8
DATA
  6
CONTINUOUS
 62
     7
 10
22.078283691406259
 20
-69.221633088550021
 30
0.0
  0
VERTEX
  5
E5C
  8
DATA
  6
CONTINUOUS
 62
     7
 10
21.996289062500011
 20
-69.328176057300027
 30
0.0
  0
VERTEX
  5
E5D
  8
DATA
  6
CONTINUOUS
 62
     7
 10
21.914025878906259
 20
-69.435695588550033
 30
0.0
  0
VERTEX
  5
E5E
  8
DATA
  6
CONTINUOUS
 62
     7
 10
21.831494140625011
 20
-69.544191682300024
 30
0.0
  0
VERTEX
  5
E5F
  8
DATA
  6
CONTINUOUS
 62
     7
 10
21.748693847656259
 20
-69.653664338550016
 30
0.0
  0
VERTEX
  5
E60
  8
DATA
  6
CONTINUOUS
 62
     7
 10
21.665625000000009
 20
-69.764113557300021
 30
0.0
  0
VERTEX
  5
E61
  8
DATA
  6
CONTINUOUS
 62
     7
 10
21.582287597656261
 20
-69.875539338550027
 30
0.0
  0
VERTEX
  5
E62
  8
DATA
  6
CONTINUOUS
 62
     7
 10
21.498681640625009
 20
-69.98794168229999
 30
0.0
  0
VERTEX
  5
E63
  8
DATA
  6
CONTINUOUS
 62
     7
 10
21.414807128906261
 20
-70.10132058855001
 30
0.0
  0
VERTEX
  5
E64
  8
DATA
  6
CONTINUOUS
 62
     7
 10
21.330664062500009
 20
-70.21567605730003
 30
0.0
  0
VERTEX
  5
E65
  8
DATA
  6
CONTINUOUS
 62
     7
 10
21.246252441406249
 20
-70.331008088550021
 30
0.0
  0
VERTEX
  5
E66
  8
DATA
  6
CONTINUOUS
 62
     7
 10
21.161572265625011
 20
-70.447316682300013
 30
0.0
  0
VERTEX
  5
E67
  8
DATA
  6
CONTINUOUS
 62
     7
 10
21.076623535156259
 20
-70.564601838550033
 30
0.0
  0
VERTEX
  5
E68
  8
DATA
  6
CONTINUOUS
 62
     7
 10
20.991406250000011
 20
-70.682863557300038
 30
0.0
  0
VERTEX
  5
E69
  8
DATA
  6
CONTINUOUS
 62
     7
 10
20.905920410156259
 20
-70.802101838550044
 30
0.0
  0
VERTEX
  5
E6A
  8
DATA
  6
CONTINUOUS
 62
     7
 10
20.820166015625009
 20
-70.92231668230005
 30
0.0
  0
VERTEX
  5
E6B
  8
DATA
  6
CONTINUOUS
 62
     7
 10
20.734143066406261
 20
-71.043508088550013
 30
0.0
  0
VERTEX
  5
E6C
  8
DATA
  6
CONTINUOUS
 62
     7
 10
20.647851562500009
 20
-71.165676057300033
 30
0.0
  0
VERTEX
  5
E6D
  8
DATA
  6
CONTINUOUS
 62
     7
 10
20.561291503906261
 20
-71.288820588550038
 30
0.0
  0
VERTEX
  5
E6E
  8
DATA
  6
CONTINUOUS
 62
     7
 10
20.474462890624999
 20
-71.412941682300016
 30
0.0
  0
VERTEX
  5
E6F
  8
DATA
  6
CONTINUOUS
 62
     7
 10
20.387365722656259
 20
-71.538039338550021
 30
0.0
  0
VERTEX
  5
E70
  8
DATA
  6
CONTINUOUS
 62
     7
 10
20.300000000000011
 20
-71.664113557300013
 30
0.0
  0
VERTEX
  5
E71
  8
DATA
  6
CONTINUOUS
 62
     7
 10
20.21280301617999
 20
-71.790346467456288
 30
0.0
  0
VERTEX
  5
E72
  8
DATA
  6
CONTINUOUS
 62
     7
 10
20.12621206471993
 20
-71.915920197925033
 30
0.0
  0
VERTEX
  5
E73
  8
DATA
  6
CONTINUOUS
 62
     7
 10
20.040227145619809
 20
-72.040834748706274
 30
0.0
  0
VERTEX
  5
E74
  8
DATA
  6
CONTINUOUS
 62
     7
 10
19.95484825887965
 20
-72.165090119800013
 30
0.0
  0
VERTEX
  5
E75
  8
DATA
  6
CONTINUOUS
 62
     7
 10
19.870075404499438
 20
-72.288686311206263
 30
0.0
  0
VERTEX
  5
E76
  8
DATA
  6
CONTINUOUS
 62
     7
 10
19.785908582479191
 20
-72.41162332292501
 30
0.0
  0
VERTEX
  5
E77
  8
DATA
  6
CONTINUOUS
 62
     7
 10
19.702347792818891
 20
-72.533901154956297
 30
0.0
  0
VERTEX
  5
E78
  8
DATA
  6
CONTINUOUS
 62
     7
 10
19.61939303551857
 20
-72.655519807300038
 30
0.0
  0
VERTEX
  5
E79
  8
DATA
  6
CONTINUOUS
 62
     7
 10
19.537044310578199
 20
-72.776479279956263
 30
0.0
  0
VERTEX
  5
E7A
  8
DATA
  6
CONTINUOUS
 62
     7
 10
19.455301617997758
 20
-72.896779572925013
 30
0.0
  0
VERTEX
  5
E7B
  8
DATA
  6
CONTINUOUS
 62
     7
 10
19.374164957777278
 20
-73.01642068620626
 30
0.0
  0
VERTEX
  5
E7C
  8
DATA
  6
CONTINUOUS
 62
     7
 10
19.29363432991677
 20
-73.13540261979999
 30
0.0
  0
VERTEX
  5
E7D
  8
DATA
  6
CONTINUOUS
 62
     7
 10
19.213709734416209
 20
-73.253725373706246
 30
0.0
  0
VERTEX
  5
E7E
  8
DATA
  6
CONTINUOUS
 62
     7
 10
19.13439117127561
 20
-73.371388947925013
 30
0.0
  0
VERTEX
  5
E7F
  8
DATA
  6
CONTINUOUS
 62
     7
 10
19.055678640494961
 20
-73.488393342456263
 30
0.0
  0
VERTEX
  5
E80
  8
DATA
  6
CONTINUOUS
 62
     7
 10
18.977572142074258
 20
-73.60473855730001
 30
0.0
  0
VERTEX
  5
E81
  8
DATA
  6
CONTINUOUS
 62
     7
 10
18.900071676013521
 20
-73.720424592456254
 30
0.0
  0
VERTEX
  5
E82
  8
DATA
  6
CONTINUOUS
 62
     7
 10
18.823177242312731
 20
-73.83545144792501
 30
0.0
  0
VERTEX
  5
E83
  8
DATA
  6
CONTINUOUS
 62
     7
 10
18.746888840971899
 20
-73.949819123706263
 30
0.0
  0
VERTEX
  5
E84
  8
DATA
  6
CONTINUOUS
 62
     7
 10
18.671206471991031
 20
-74.063527619799999
 30
0.0
  0
VERTEX
  5
E85
  8
DATA
  6
CONTINUOUS
 62
     7
 10
18.5961301353701
 20
-74.176576936206246
 30
0.0
  0
VERTEX
  5
E86
  8
DATA
  6
CONTINUOUS
 62
     7
 10
18.521659831109151
 20
-74.28896707292499
 30
0.0
  0
VERTEX
  5
E87
  8
DATA
  6
CONTINUOUS
 62
     7
 10
18.447795559208132
 20
-74.40069802995626
 30
0.0
  0
VERTEX
  5
E88
  8
DATA
  6
CONTINUOUS
 62
     7
 10
18.374537319667091
 20
-74.511769807299999
 30
0.0
  0
VERTEX
  5
E89
  8
DATA
  6
CONTINUOUS
 62
     7
 10
18.30188511248598
 20
-74.622182404956263
 30
0.0
  0
VERTEX
  5
E8A
  8
DATA
  6
CONTINUOUS
 62
     7
 10
18.229838937664841
 20
-74.73193582292501
 30
0.0
  0
VERTEX
  5
E8B
  8
DATA
  6
CONTINUOUS
 62
     7
 10
18.158398795203642
 20
-74.841030061206254
 30
0.0
  0
VERTEX
  5
E8C
  8
DATA
  6
CONTINUOUS
 62
     7
 10
18.087564685102411
 20
-74.94946511980001
 30
0.0
  0
VERTEX
  5
E8D
  8
DATA
  6
CONTINUOUS
 62
     7
 10
18.017336607361131
 20
-75.057240998706263
 30
0.0
  0
VERTEX
  5
E8E
  8
DATA
  6
CONTINUOUS
 62
     7
 10
17.947714561979812
 20
-75.164357697925013
 30
0.0
  0
VERTEX
  5
E8F
  8
DATA
  6
CONTINUOUS
 62
     7
 10
17.87869854895844
 20
-75.27081521745626
 30
0.0
  0
VERTEX
  5
E90
  8
DATA
  6
CONTINUOUS
 62
     7
 10
17.810288568297018
 20
-75.37661355729999
 30
0.0
  0
VERTEX
  5
E91
  8
DATA
  6
CONTINUOUS
 62
     7
 10
17.742484619995562
 20
-75.48175271745626
 30
0.0
  0
VERTEX
  5
E92
  8
DATA
  6
CONTINUOUS
 62
     7
 10
17.675286704054059
 20
-75.586232697925013
 30
0.0
  0
VERTEX
  5
E93
  8
DATA
  6
CONTINUOUS
 62
     7
 10
17.608694820472511
 20
-75.690053498706263
 30
0.0
  0
VERTEX
  5
E94
  8
DATA
  6
CONTINUOUS
 62
     7
 10
17.54270896925091
 20
-75.79321511980001
 30
0.0
  0
VERTEX
  5
E95
  8
DATA
  6
CONTINUOUS
 62
     7
 10
17.477329150389259
 20
-75.895717561206254
 30
0.0
  0
VERTEX
  5
E96
  8
DATA
  6
CONTINUOUS
 62
     7
 10
17.412555363887591
 20
-75.997560822924996
 30
0.0
  0
VERTEX
  5
E97
  8
DATA
  6
CONTINUOUS
 62
     7
 10
17.34838760974587
 20
-76.098744904956263
 30
0.0
  0
VERTEX
  5
E98
  8
DATA
  6
CONTINUOUS
 62
     7
 10
17.284825887964089
 20
-76.199269807299984
 30
0.0
  0
VERTEX
  5
E99
  8
DATA
  6
CONTINUOUS
 62
     7
 10
17.221870198542259
 20
-76.29913552995626
 30
0.0
  0
VERTEX
  5
E9A
  8
DATA
  6
CONTINUOUS
 62
     7
 10
17.159520541480401
 20
-76.39834207292499
 30
0.0
  0
VERTEX
  5
E9B
  8
DATA
  6
CONTINUOUS
 62
     7
 10
17.0977769167785
 20
-76.49688943620626
 30
0.0
  0
VERTEX
  5
E9C
  8
DATA
  6
CONTINUOUS
 62
     7
 10
17.036639324436528
 20
-76.594777619799984
 30
0.0
  0
VERTEX
  5
E9D
  8
DATA
  6
CONTINUOUS
 62
     7
 10
16.97610776445454
 20
-76.692006623706263
 30
0.0
  0
VERTEX
  5
E9E
  8
DATA
  6
CONTINUOUS
 62
     7
 10
16.916182236832491
 20
-76.788576447924996
 30
0.0
  0
VERTEX
  5
E9F
  8
DATA
  6
CONTINUOUS
 62
     7
 10
16.856862741570389
 20
-76.884487092456254
 30
0.0
  0
VERTEX
  5
EA0
  8
DATA
  6
CONTINUOUS
 62
     7
 10
16.79814927866828
 20
-76.97973855730001
 30
0.0
  0
VERTEX
  5
EA1
  8
DATA
  6
CONTINUOUS
 62
     7
 10
16.74004184812609
 20
-77.074330842456263
 30
0.0
  0
VERTEX
  5
EA2
  8
DATA
  6
CONTINUOUS
 62
     7
 10
16.682540449943868
 20
-77.168263947925013
 30
0.0
  0
VERTEX
  5
EA3
  8
DATA
  6
CONTINUOUS
 62
     7
 10
16.62564508412159
 20
-77.26153787370626
 30
0.0
  0
VERTEX
  5
EA4
  8
DATA
  6
CONTINUOUS
 62
     7
 10
16.56935575065928
 20
-77.35415261979999
 30
0.0
  0
VERTEX
  5
EA5
  8
DATA
  6
CONTINUOUS
 62
     7
 10
16.513672449556921
 20
-77.44610818620626
 30
0.0
  0
VERTEX
  5
EA6
  8
DATA
  6
CONTINUOUS
 62
     7
 10
16.45859518081453
 20
-77.537404572925013
 30
0.0
  0
VERTEX
  5
EA7
  8
DATA
  6
CONTINUOUS
 62
     7
 10
16.404123944432069
 20
-77.628041779956263
 30
0.0
  0
VERTEX
  5
EA8
  8
DATA
  6
CONTINUOUS
 62
     7
 10
16.350258740409579
 20
-77.718019807300024
 30
0.0
  0
VERTEX
  5
EA9
  8
DATA
  6
CONTINUOUS
 62
     7
 10
16.29699956874704
 20
-77.807338654956297
 30
0.0
  0
VERTEX
  5
EAA
  8
DATA
  6
CONTINUOUS
 62
     7
 10
16.244346429444459
 20
-77.89599832292501
 30
0.0
  0
VERTEX
  5
EAB
  8
DATA
  6
CONTINUOUS
 62
     7
 10
16.192299322501821
 20
-77.983998811206263
 30
0.0
  0
VERTEX
  5
EAC
  8
DATA
  6
CONTINUOUS
 62
     7
 10
16.140858247919152
 20
-78.071340119800013
 30
0.0
  0
VERTEX
  5
EAD
  8
DATA
  6
CONTINUOUS
 62
     7
 10
16.090023205696419
 20
-78.15802224870626
 30
0.0
  0
VERTEX
  5
EAE
  8
DATA
  6
CONTINUOUS
 62
     7
 10
16.039794195833679
 20
-78.244045197925004
 30
0.0
  0
VERTEX
  5
EAF
  8
DATA
  6
CONTINUOUS
 62
     7
 10
15.99017121833087
 20
-78.329408967456288
 30
0.0
  0
VERTEX
  5
EB0
  8
DATA
  6
CONTINUOUS
 62
     7
 10
15.941154273188021
 20
-78.414113557300013
 30
0.0
  0
VERTEX
  5
EB1
  8
DATA
  6
CONTINUOUS
 62
     7
 10
15.89270101108392
 20
-78.498427522143785
 30
0.0
  0
VERTEX
  5
EB2
  8
DATA
  6
CONTINUOUS
 62
     7
 10
15.844769082697439
 20
-78.582619416675016
 30
0.0
  0
VERTEX
  5
EB3
  8
DATA
  6
CONTINUOUS
 62
     7
 10
15.79735848802853
 20
-78.666689240893788
 30
0.0
  0
VERTEX
  5
EB4
  8
DATA
  6
CONTINUOUS
 62
     7
 10
15.750469227077231
 20
-78.750636994800033
 30
0.0
  0
VERTEX
  5
EB5
  8
DATA
  6
CONTINUOUS
 62
     7
 10
15.70410129984352
 20
-78.834462678393777
 30
0.0
  0
VERTEX
  5
EB6
  8
DATA
  6
CONTINUOUS
 62
     7
 10
15.65825470632738
 20
-78.91816629167505
 30
0.0
  0
VERTEX
  5
EB7
  8
DATA
  6
CONTINUOUS
 62
     7
 10
15.612929446528829
 20
-79.001747834643794
 30
0.0
  0
VERTEX
  5
EB8
  8
DATA
  6
CONTINUOUS
 62
     7
 10
15.568125520447889
 20
-79.085207307300024
 30
0.0
  0
VERTEX
  5
EB9
  8
DATA
  6
CONTINUOUS
 62
     7
 10
15.52384292808453
 20
-79.168544709643783
 30
0.0
  0
VERTEX
  5
EBA
  8
DATA
  6
CONTINUOUS
 62
     7
 10
15.480081669438761
 20
-79.251760041675013
 30
0.0
  0
VERTEX
  5
EBB
  8
DATA
  6
CONTINUOUS
 62
     7
 10
15.43684174451057
 20
-79.334853303393785
 30
0.0
  0
VERTEX
  5
EBC
  8
DATA
  6
CONTINUOUS
 62
     7
 10
15.394123153299979
 20
-79.417824494800016
 30
0.0
  0
VERTEX
  5
EBD
  8
DATA
  6
CONTINUOUS
 62
     7
 10
15.35192589580698
 20
-79.500673615893746
 30
0.0
  0
VERTEX
  5
EBE
  8
DATA
  6
CONTINUOUS
 62
     7
 10
15.310249972031571
 20
-79.583400666675018
 30
0.0
  0
VERTEX
  5
EBF
  8
DATA
  6
CONTINUOUS
 62
     7
 10
15.26909538197374
 20
-79.666005647143777
 30
0.0
  0
VERTEX
  5
EC0
  8
DATA
  6
CONTINUOUS
 62
     7
 10
15.228462125633509
 20
-79.748488557300021
 30
0.0
  0
VERTEX
  5
EC1
  8
DATA
  6
CONTINUOUS
 62
     7
 10
15.18835020301087
 20
-79.830849397143766
 30
0.0
  0
VERTEX
  5
EC2
  8
DATA
  6
CONTINUOUS
 62
     7
 10
15.14875961410581
 20
-79.913088166675038
 30
0.0
  0
VERTEX
  5
EC3
  8
DATA
  6
CONTINUOUS
 62
     7
 10
15.109690358918339
 20
-79.995204865893783
 30
0.0
  0
VERTEX
  5
EC4
  8
DATA
  6
CONTINUOUS
 62
     7
 10
15.07114243744847
 20
-80.077199494800013
 30
0.0
  0
VERTEX
  5
EC5
  8
DATA
  6
CONTINUOUS
 62
     7
 10
15.033115849696189
 20
-80.159072053393785
 30
0.0
  0
VERTEX
  5
EC6
  8
DATA
  6
CONTINUOUS
 62
     7
 10
14.995610595661489
 20
-80.240822541675016
 30
0.0
  0
VERTEX
  5
EC7
  8
DATA
  6
CONTINUOUS
 62
     7
 10
14.958626675344391
 20
-80.322450959643746
 30
0.0
  0
VERTEX
  5
EC8
  8
DATA
  6
CONTINUOUS
 62
     7
 10
14.92216408874488
 20
-80.40395730729999
 30
0.0
  0
VERTEX
  5
EC9
  8
DATA
  6
CONTINUOUS
 62
     7
 10
14.88622283586295
 20
-80.485341584643749
 30
0.0
  0
VERTEX
  5
ECA
  8
DATA
  6
CONTINUOUS
 62
     7
 10
14.85080291669861
 20
-80.566603791674993
 30
0.0
  0
VERTEX
  5
ECB
  8
DATA
  6
CONTINUOUS
 62
     7
 10
14.81590433125187
 20
-80.647743928393766
 30
0.0
  0
VERTEX
  5
ECC
  8
DATA
  6
CONTINUOUS
 62
     7
 10
14.78152707952273
 20
-80.72876199480001
 30
0.0
  0
VERTEX
  5
ECD
  8
DATA
  6
CONTINUOUS
 62
     7
 10
14.74767116151118
 20
-80.809657990893754
 30
0.0
  0
VERTEX
  5
ECE
  8
DATA
  6
CONTINUOUS
 62
     7
 10
14.714336577217191
 20
-80.890431916675013
 30
0.0
  0
VERTEX
  5
ECF
  8
DATA
  6
CONTINUOUS
 62
     7
 10
14.681523326640811
 20
-80.971083772143785
 30
0.0
  0
VERTEX
  5
ED0
  8
DATA
  6
CONTINUOUS
 62
     7
 10
14.64923140978202
 20
-81.051613557300016
 30
0.0
  0
VERTEX
  5
ED1
  8
DATA
  6
CONTINUOUS
 62
     7
 10
14.6174608266408
 20
-81.132021272143774
 30
0.0
  0
VERTEX
  5
ED2
  8
DATA
  6
CONTINUOUS
 62
     7
 10
14.586211577217179
 20
-81.212306916675018
 30
0.0
  0
VERTEX
  5
ED3
  8
DATA
  6
CONTINUOUS
 62
     7
 10
14.555483661511159
 20
-81.292470490893777
 30
0.0
  0
VERTEX
  5
ED4
  8
DATA
  6
CONTINUOUS
 62
     7
 10
14.525277079522739
 20
-81.372511994800035
 30
0.0
  0
VERTEX
  5
ED5
  8
DATA
  6
CONTINUOUS
 62
     7
 10
14.4955918312519
 20
-81.452431428393766
 30
0.0
  0
VERTEX
  5
ED6
  8
DATA
  6
CONTINUOUS
 62
     7
 10
14.466427916698629
 20
-81.532228791675038
 30
0.0
  0
VERTEX
  5
ED7
  8
DATA
  6
CONTINUOUS
 62
     7
 10
14.437785335862969
 20
-81.611904084643783
 30
0.0
  0
VERTEX
  5
ED8
  8
DATA
  6
CONTINUOUS
 62
     7
 10
14.40966408874489
 20
-81.691457307300013
 30
0.0
  0
VERTEX
  5
ED9
  8
DATA
  6
CONTINUOUS
 62
     7
 10
14.382064175344411
 20
-81.770888459643785
 30
0.0
  0
VERTEX
  5
EDA
  8
DATA
  6
CONTINUOUS
 62
     7
 10
14.354985595661519
 20
-81.850197541675016
 30
0.0
  0
VERTEX
  5
EDB
  8
DATA
  6
CONTINUOUS
 62
     7
 10
14.32842834969621
 20
-81.92938455339376
 30
0.0
  0
VERTEX
  5
EDC
  8
DATA
  6
CONTINUOUS
 62
     7
 10
14.302392437448489
 20
-82.008449494799976
 30
0.0
  0
VERTEX
  5
EDD
  8
DATA
  6
CONTINUOUS
 62
     7
 10
14.27687785891835
 20
-82.087392365893763
 30
0.0
  0
VERTEX
  5
EDE
  8
DATA
  6
CONTINUOUS
 62
     7
 10
14.251884614105821
 20
-82.166213166674993
 30
0.0
  0
VERTEX
  5
EDF
  8
DATA
  6
CONTINUOUS
 62
     7
 10
14.22741270301087
 20
-82.244911897143766
 30
0.0
  0
VERTEX
  5
EE0
  8
DATA
  6
CONTINUOUS
 62
     7
 10
14.20346212563352
 20
-82.323488557299996
 30
0.0
  0
VERTEX
  5
EE1
  8
DATA
  6
CONTINUOUS
 62
     7
 10
14.18003288197376
 20
-82.40194314714374
 30
0.0
  0
VERTEX
  5
EE2
  8
DATA
  6
CONTINUOUS
 62
     7
 10
14.15712497203158
 20
-82.480275666674999
 30
0.0
  0
VERTEX
  5
EE3
  8
DATA
  6
CONTINUOUS
 62
     7
 10
14.134738395806989
 20
-82.558486115893785
 30
0.0
  0
VERTEX
  5
EE4
  8
DATA
  6
CONTINUOUS
 62
     7
 10
14.112873153299979
 20
-82.636574494800016
 30
0.0
  0
VERTEX
  5
EE5
  8
DATA
  6
CONTINUOUS
 62
     7
 10
14.091529244510561
 20
-82.71454080339376
 30
0.0
  0
VERTEX
  5
EE6
  8
DATA
  6
CONTINUOUS
 62
     7
 10
14.070706669438749
 20
-82.792385041675004
 30
0.0
  0
VERTEX
  5
EE7
  8
DATA
  6
CONTINUOUS
 62
     7
 10
14.05040542808452
 20
-82.870107209643763
 30
0.0
  0
VERTEX
  5
EE8
  8
DATA
  6
CONTINUOUS
 62
     7
 10
14.030625520447879
 20
-82.947707307299979
 30
0.0
  0
VERTEX
  5
EE9
  8
DATA
  6
CONTINUOUS
 62
     7
 10
14.011366946528829
 20
-83.025185334643737
 30
0.0
  0
VERTEX
  5
EEA
  8
DATA
  6
CONTINUOUS
 62
     7
 10
13.992629706327371
 20
-83.102541291674981
 30
0.0
  0
VERTEX
  5
EEB
  8
DATA
  6
CONTINUOUS
 62
     7
 10
13.974413799843511
 20
-83.17977517839374
 30
0.0
  0
VERTEX
  5
EEC
  8
DATA
  6
CONTINUOUS
 62
     7
 10
13.95671922707723
 20
-83.256886994799999
 30
0.0
  0
VERTEX
  5
EED
  8
DATA
  6
CONTINUOUS
 62
     7
 10
13.93954598802854
 20
-83.333876740893743
 30
0.0
  0
VERTEX
  5
EEE
  8
DATA
  6
CONTINUOUS
 62
     7
 10
13.922894082697439
 20
-83.410744416675016
 30
0.0
  0
VERTEX
  5
EEF
  8
DATA
  6
CONTINUOUS
 62
     7
 10
13.90676351108392
 20
-83.487490022143746
 30
0.0
  0
VERTEX
  5
EF0
  8
DATA
  6
CONTINUOUS
 62
     7
 10
13.891154273188009
 20
-83.56411355729999
 30
0.0
  0
VERTEX
  5
EF1
  8
DATA
  6
CONTINUOUS
 62
     7
 10
13.87577912848711
 20
-83.640907990893766
 30
0.0
  0
VERTEX
  5
EF2
  8
DATA
  6
CONTINUOUS
 62
     7
 10
13.860350836458659
 20
-83.718166291675018
 30
0.0
  0
VERTEX
  5
EF3
  8
DATA
  6
CONTINUOUS
 62
     7
 10
13.844869397102681
 20
-83.795888459643749
 30
0.0
  0
VERTEX
  5
EF4
  8
DATA
  6
CONTINUOUS
 62
     7
 10
13.82933481041915
 20
-83.874074494799984
 30
0.0
  0
VERTEX
  5
EF5
  8
DATA
  6
CONTINUOUS
 62
     7
 10
13.81374707640807
 20
-83.952724397143726
 30
0.0
  0
VERTEX
  5
EF6
  8
DATA
  6
CONTINUOUS
 62
     7
 10
13.798106195069449
 20
-84.031838166675016
 30
0.0
  0
VERTEX
  5
EF7
  8
DATA
  6
CONTINUOUS
 62
     7
 10
13.78241216640329
 20
-84.111415803393726
 30
0.0
  0
VERTEX
  5
EF8
  8
DATA
  6
CONTINUOUS
 62
     7
 10
13.766664990409581
 20
-84.191457307300013
 30
0.0
  0
VERTEX
  5
EF9
  8
DATA
  6
CONTINUOUS
 62
     7
 10
13.750864667088321
 20
-84.271962678393777
 30
0.0
  0
VERTEX
  5
EFA
  8
DATA
  6
CONTINUOUS
 62
     7
 10
13.73501119643951
 20
-84.352931916675018
 30
0.0
  0
VERTEX
  5
EFB
  8
DATA
  6
CONTINUOUS
 62
     7
 10
13.71910457846317
 20
-84.434365022143766
 30
0.0
  0
VERTEX
  5
EFC
  8
DATA
  6
CONTINUOUS
 62
     7
 10
13.70314481315928
 20
-84.51626199479999
 30
0.0
  0
VERTEX
  5
EFD
  8
DATA
  6
CONTINUOUS
 62
     7
 10
13.68713190052784
 20
-84.598622834643763
 30
0.0
  0
VERTEX
  5
EFE
  8
DATA
  6
CONTINUOUS
 62
     7
 10
13.671065840568859
 20
-84.681447541675027
 30
0.0
  0
VERTEX
  5
EFF
  8
DATA
  6
CONTINUOUS
 62
     7
 10
13.65494663328233
 20
-84.764736115893754
 30
0.0
  0
VERTEX
  5
F00
  8
DATA
  6
CONTINUOUS
 62
     7
 10
13.63877427866826
 20
-84.848488557300016
 30
0.0
  0
VERTEX
  5
F01
  8
DATA
  6
CONTINUOUS
 62
     7
 10
13.62254877672664
 20
-84.93270486589374
 30
0.0
  0
VERTEX
  5
F02
  8
DATA
  6
CONTINUOUS
 62
     7
 10
13.606270127457471
 20
-85.017385041675013
 30
0.0
  0
VERTEX
  5
F03
  8
DATA
  6
CONTINUOUS
 62
     7
 10
13.58993833086077
 20
-85.102529084643763
 30
0.0
  0
VERTEX
  5
F04
  8
DATA
  6
CONTINUOUS
 62
     7
 10
13.573553386936521
 20
-85.18813699479999
 30
0.0
  0
VERTEX
  5
F05
  8
DATA
  6
CONTINUOUS
 62
     7
 10
13.557115295684721
 20
-85.274208772143766
 30
0.0
  0
VERTEX
  5
F06
  8
DATA
  6
CONTINUOUS
 62
     7
 10
13.54062405710537
 20
-85.360744416675004
 30
0.0
  0
VERTEX
  5
F07
  8
DATA
  6
CONTINUOUS
 62
     7
 10
13.524079671198489
 20
-85.447743928393777
 30
0.0
  0
VERTEX
  5
F08
  8
DATA
  6
CONTINUOUS
 62
     7
 10
13.50748213796407
 20
-85.535207307300013
 30
0.0
  0
VERTEX
  5
F09
  8
DATA
  6
CONTINUOUS
 62
     7
 10
13.490831457402111
 20
-85.62313455339374
 30
0.0
  0
VERTEX
  5
F0A
  8
DATA
  6
CONTINUOUS
 62
     7
 10
13.47412762951258
 20
-85.711525666675016
 30
0.0
  0
VERTEX
  5
F0B
  8
DATA
  6
CONTINUOUS
 62
     7
 10
13.457370654295509
 20
-85.80038064714374
 30
0.0
  0
VERTEX
  5
F0C
  8
DATA
  6
CONTINUOUS
 62
     7
 10
13.440560531750901
 20
-85.889699494799999
 30
0.0
  0
VERTEX
  5
F0D
  8
DATA
  6
CONTINUOUS
 62
     7
 10
13.42369726187874
 20
-85.979482209643777
 30
0.0
  0
VERTEX
  5
F0E
  8
DATA
  6
CONTINUOUS
 62
     7
 10
13.40678084467903
 20
-86.069728791675018
 30
0.0
  0
VERTEX
  5
F0F
  8
DATA
  6
CONTINUOUS
 62
     7
 10
13.38981128015179
 20
-86.160439240893766
 30
0.0
  0
VERTEX
  5
F10
  8
DATA
  6
CONTINUOUS
 62
     7
 10
13.372788568297009
 20
-86.251613557300033
 30
0.0
  0
VERTEX
  5
F11
  8
DATA
  6
CONTINUOUS
 62
     7
 10
13.35571270911468
 20
-86.343251740893777
 30
0.0
  0
VERTEX
  5
F12
  8
DATA
  6
CONTINUOUS
 62
     7
 10
13.33858370260479
 20
-86.435353791674999
 30
0.0
  0
VERTEX
  5
F13
  8
DATA
  6
CONTINUOUS
 62
     7
 10
13.32140154876736
 20
-86.527919709643726
 30
0.0
  0
VERTEX
  5
F14
  8
DATA
  6
CONTINUOUS
 62
     7
 10
13.304166247602391
 20
-86.620949494800016
 30
0.0
  0
VERTEX
  5
F15
  8
DATA
  6
CONTINUOUS
 62
     7
 10
13.286877799109879
 20
-86.714443147143726
 30
0.0
  0
VERTEX
  5
F16
  8
DATA
  6
CONTINUOUS
 62
     7
 10
13.26953620328983
 20
-86.808400666675013
 30
0.0
  0
VERTEX
  5
F17
  8
DATA
  6
CONTINUOUS
 62
     7
 10
13.252141460142219
 20
-86.902822053393777
 30
0.0
  0
VERTEX
  5
F18
  8
DATA
  6
CONTINUOUS
 62
     7
 10
13.234693569667069
 20
-86.997707307300033
 30
0.0
  0
VERTEX
  5
F19
  8
DATA
  6
CONTINUOUS
 62
     7
 10
13.21719253186437
 20
-87.093056428393766
 30
0.0
  0
VERTEX
  5
F1A
  8
DATA
  6
CONTINUOUS
 62
     7
 10
13.19963834673413
 20
-87.188869416675018
 30
0.0
  0
VERTEX
  5
F1B
  8
DATA
  6
CONTINUOUS
 62
     7
 10
13.18203101427634
 20
-87.285146272143777
 30
0.0
  0
VERTEX
  5
F1C
  8
DATA
  6
CONTINUOUS
 62
     7
 10
13.16437053449102
 20
-87.381886994800013
 30
0.0
  0
VERTEX
  5
F1D
  8
DATA
  6
CONTINUOUS
 62
     7
 10
13.14665690737816
 20
-87.479091584643726
 30
0.0
  0
VERTEX
  5
F1E
  8
DATA
  6
CONTINUOUS
 62
     7
 10
13.128890132937739
 20
-87.576760041675016
 30
0.0
  0
VERTEX
  5
F1F
  8
DATA
  6
CONTINUOUS
 62
     7
 10
13.111070211169769
 20
-87.674892365893726
 30
0.0
  0
VERTEX
  5
F20
  8
DATA
  6
CONTINUOUS
 62
     7
 10
13.09319714207426
 20
-87.773488557300027
 30
0.0
  0
VERTEX
  5
F21
  8
DATA
  6
CONTINUOUS
 62
     7
 10
13.075270925651189
 20
-87.872548615893777
 30
0.0
  0
VERTEX
  5
F22
  8
DATA
  6
CONTINUOUS
 62
     7
 10
13.057291561900589
 20
-87.972072541675004
 30
0.0
  0
VERTEX
  5
F23
  8
DATA
  6
CONTINUOUS
 62
     7
 10
13.03925905082245
 20
-88.072060334643766
 30
0.0
  0
VERTEX
  5
F24
  8
DATA
  6
CONTINUOUS
 62
     7
 10
13.02117339241677
 20
-88.17251199479999
 30
0.0
  0
VERTEX
  5
F25
  8
DATA
  6
CONTINUOUS
 62
     7
 10
13.00303458668354
 20
-88.273427522143749
 30
0.0
  0
VERTEX
  5
F26
  8
DATA
  6
CONTINUOUS
 62
     7
 10
12.98484263362276
 20
-88.374806916675013
 30
0.0
  0
VERTEX
  5
F27
  8
DATA
  6
CONTINUOUS
 62
     7
 10
12.966597533234429
 20
-88.476650178393726
 30
0.0
  0
VERTEX
  5
F28
  8
DATA
  6
CONTINUOUS
 62
     7
 10
12.94829928551856
 20
-88.578957307300016
 30
0.0
  0
VERTEX
  5
F29
  8
DATA
  6
CONTINUOUS
 62
     7
 10
12.92994789047515
 20
-88.681728303393726
 30
0.0
  0
VERTEX
  5
F2A
  8
DATA
  6
CONTINUOUS
 62
     7
 10
12.911543348104191
 20
-88.784963166675013
 30
0.0
  0
VERTEX
  5
F2B
  8
DATA
  6
CONTINUOUS
 62
     7
 10
12.89308565840569
 20
-88.888661897143749
 30
0.0
  0
VERTEX
  5
F2C
  8
DATA
  6
CONTINUOUS
 62
     7
 10
12.874574821379641
 20
-88.99282449479999
 30
0.0
  0
VERTEX
  5
F2D
  8
DATA
  6
CONTINUOUS
 62
     7
 10
12.85601083702603
 20
-89.097450959643766
 30
0.0
  0
VERTEX
  5
F2E
  8
DATA
  6
CONTINUOUS
 62
     7
 10
12.837393705344891
 20
-89.202541291675004
 30
0.0
  0
VERTEX
  5
F2F
  8
DATA
  6
CONTINUOUS
 62
     7
 10
12.81872342633622
 20
-89.308095490893777
 30
0.0
  0
VERTEX
  5
F30
  8
DATA
  6
CONTINUOUS
 62
     7
 10
12.79999999999999
 20
-89.414113557300027
 30
0.0
  0
VERTEX
  5
F31
  8
DATA
  6
CONTINUOUS
 62
     7
 10
12.781396484374991
 20
-89.520607697925016
 30
0.0
  0
VERTEX
  5
F32
  8
DATA
  6
CONTINUOUS
 62
     7
 10
12.7630859375
 20
-89.627590119800018
 30
0.0
  0
VERTEX
  5
F33
  8
DATA
  6
CONTINUOUS
 62
     7
 10
12.74506835937499
 20
-89.73506082292505
 30
0.0
  0
VERTEX
  5
F34
  8
DATA
  6
CONTINUOUS
 62
     7
 10
12.727343749999999
 20
-89.843019807300038
 30
0.0
  0
VERTEX
  5
F35
  8
DATA
  6
CONTINUOUS
 62
     7
 10
12.70991210937499
 20
-89.951467072925013
 30
0.0
  0
VERTEX
  5
F36
  8
DATA
  6
CONTINUOUS
 62
     7
 10
12.6927734375
 20
-90.060402619800016
 30
0.0
  0
VERTEX
  5
F37
  8
DATA
  6
CONTINUOUS
 62
     7
 10
12.675927734374991
 20
-90.16982644792499
 30
0.0
  0
VERTEX
  5
F38
  8
DATA
  6
CONTINUOUS
 62
     7
 10
12.65937499999999
 20
-90.279738557300007
 30
0.0
  0
VERTEX
  5
F39
  8
DATA
  6
CONTINUOUS
 62
     7
 10
12.643115234374999
 20
-90.390138947925067
 30
0.0
  0
VERTEX
  5
F3A
  8
DATA
  6
CONTINUOUS
 62
     7
 10
12.62714843749999
 20
-90.501027619800013
 30
0.0
  0
VERTEX
  5
F3B
  8
DATA
  6
CONTINUOUS
 62
     7
 10
12.611474609374991
 20
-90.612404572925001
 30
0.0
  0
VERTEX
  5
F3C
  8
DATA
  6
CONTINUOUS
 62
     7
 10
12.596093749999991
 20
-90.724269807299976
 30
0.0
  0
VERTEX
  5
F3D
  8
DATA
  6
CONTINUOUS
 62
     7
 10
12.58100585937499
 20
-90.836623322924993
 30
0.0
  0
VERTEX
  5
F3E
  8
DATA
  6
CONTINUOUS
 62
     7
 10
12.566210937499999
 20
-90.949465119799996
 30
0.0
  0
VERTEX
  5
F3F
  8
DATA
  6
CONTINUOUS
 62
     7
 10
12.55170898437499
 20
-91.062795197925013
 30
0.0
  0
VERTEX
  5
F40
  8
DATA
  6
CONTINUOUS
 62
     7
 10
12.537499999999991
 20
-91.176613557300001
 30
0.0
  0
VERTEX
  5
F41
  8
DATA
  6
CONTINUOUS
 62
     7
 10
12.523583984374991
 20
-91.290920197925004
 30
0.0
  0
VERTEX
  5
F42
  8
DATA
  6
CONTINUOUS
 62
     7
 10
12.50996093749999
 20
-91.405715119800021
 30
0.0
  0
VERTEX
  5
F43
  8
DATA
  6
CONTINUOUS
 62
     7
 10
12.496630859374999
 20
-91.520998322925067
 30
0.0
  0
VERTEX
  5
F44
  8
DATA
  6
CONTINUOUS
 62
     7
 10
12.48359374999999
 20
-91.636769807299999
 30
0.0
  0
VERTEX
  5
F45
  8
DATA
  6
CONTINUOUS
 62
     7
 10
12.470849609374991
 20
-91.753029572924987
 30
0.0
  0
VERTEX
  5
F46
  8
DATA
  6
CONTINUOUS
 62
     7
 10
12.4583984375
 20
-91.86977761979999
 30
0.0
  0
VERTEX
  5
F47
  8
DATA
  6
CONTINUOUS
 62
     7
 10
12.44624023437499
 20
-91.987013947924979
 30
0.0
  0
VERTEX
  5
F48
  8
DATA
  6
CONTINUOUS
 62
     7
 10
12.434374999999999
 20
-92.104738557299996
 30
0.0
  0
VERTEX
  5
F49
  8
DATA
  6
CONTINUOUS
 62
     7
 10
12.42280273437499
 20
-92.222951447925027
 30
0.0
  0
VERTEX
  5
F4A
  8
DATA
  6
CONTINUOUS
 62
     7
 10
12.4115234375
 20
-92.341652619800016
 30
0.0
  0
VERTEX
  5
F4B
  8
DATA
  6
CONTINUOUS
 62
     7
 10
12.400537109374991
 20
-92.46084207292499
 30
0.0
  0
VERTEX
  5
F4C
  8
DATA
  6
CONTINUOUS
 62
     7
 10
12.38984374999999
 20
-92.580519807300007
 30
0.0
  0
VERTEX
  5
F4D
  8
DATA
  6
CONTINUOUS
 62
     7
 10
12.379443359374999
 20
-92.700685822924981
 30
0.0
  0
VERTEX
  5
F4E
  8
DATA
  6
CONTINUOUS
 62
     7
 10
12.36933593750001
 20
-92.821340119800013
 30
0.0
  0
VERTEX
  5
F4F
  8
DATA
  6
CONTINUOUS
 62
     7
 10
12.359521484375
 20
-92.942482697925001
 30
0.0
  0
VERTEX
  5
F50
  8
DATA
  6
CONTINUOUS
 62
     7
 10
12.35
 20
-93.06411355729999
 30
0.0
  0
VERTEX
  5
F51
  8
DATA
  6
CONTINUOUS
 62
     7
 10
12.34077148437499
 20
-93.186232697924993
 30
0.0
  0
VERTEX
  5
F52
  8
DATA
  6
CONTINUOUS
 62
     7
 10
12.331835937499999
 20
-93.308840119799996
 30
0.0
  0
VERTEX
  5
F53
  8
DATA
  6
CONTINUOUS
 62
     7
 10
12.32319335937499
 20
-93.431935822925013
 30
0.0
  0
VERTEX
  5
F54
  8
DATA
  6
CONTINUOUS
 62
     7
 10
12.31484375000001
 20
-93.555519807300001
 30
0.0
  0
VERTEX
  5
F55
  8
DATA
  6
CONTINUOUS
 62
     7
 10
12.30678710937501
 20
-93.679592072924976
 30
0.0
  0
VERTEX
  5
F56
  8
DATA
  6
CONTINUOUS
 62
     7
 10
12.29902343750001
 20
-93.804152619799993
 30
0.0
  0
VERTEX
  5
F57
  8
DATA
  6
CONTINUOUS
 62
     7
 10
12.291552734374999
 20
-93.929201447924981
 30
0.0
  0
VERTEX
  5
F58
  8
DATA
  6
CONTINUOUS
 62
     7
 10
12.28437500000001
 20
-94.054738557300013
 30
0.0
  0
VERTEX
  5
F59
  8
DATA
  6
CONTINUOUS
 62
     7
 10
12.27749023437501
 20
-94.180763947925001
 30
0.0
  0
VERTEX
  5
F5A
  8
DATA
  6
CONTINUOUS
 62
     7
 10
12.27089843750001
 20
-94.307277619800004
 30
0.0
  0
VERTEX
  5
F5B
  8
DATA
  6
CONTINUOUS
 62
     7
 10
12.26459960937499
 20
-94.434279572924993
 30
0.0
  0
VERTEX
  5
F5C
  8
DATA
  6
CONTINUOUS
 62
     7
 10
12.258593749999999
 20
-94.561769807299967
 30
0.0
  0
VERTEX
  5
F5D
  8
DATA
  6
CONTINUOUS
 62
     7
 10
12.25288085937499
 20
-94.689748322924956
 30
0.0
  0
VERTEX
  5
F5E
  8
DATA
  6
CONTINUOUS
 62
     7
 10
12.2474609375
 20
-94.818215119799973
 30
0.0
  0
VERTEX
  5
F5F
  8
DATA
  6
CONTINUOUS
 62
     7
 10
12.242333984375
 20
-94.94717019792499
 30
0.0
  0
VERTEX
  5
F60
  8
DATA
  6
CONTINUOUS
 62
     7
 10
12.23749999999999
 20
-95.076613557299979
 30
0.0
  0
VERTEX
  5
F61
  8
DATA
  6
CONTINUOUS
 62
     7
 10
12.232958984374999
 20
-95.206545197924996
 30
0.0
  0
VERTEX
  5
F62
  8
DATA
  6
CONTINUOUS
 62
     7
 10
12.22871093749999
 20
-95.336965119800027
 30
0.0
  0
VERTEX
  5
F63
  8
DATA
  6
CONTINUOUS
 62
     7
 10
12.224755859374991
 20
-95.467873322925016
 30
0.0
  0
VERTEX
  5
F64
  8
DATA
  6
CONTINUOUS
 62
     7
 10
12.221093749999991
 20
-95.59926980729999
 30
0.0
  0
VERTEX
  5
F65
  8
DATA
  6
CONTINUOUS
 62
     7
 10
12.21772460937499
 20
-95.731154572925007
 30
0.0
  0
VERTEX
  5
F66
  8
DATA
  6
CONTINUOUS
 62
     7
 10
12.214648437499999
 20
-95.863527619799996
 30
0.0
  0
VERTEX
  5
F67
  8
DATA
  6
CONTINUOUS
 62
     7
 10
12.21186523437499
 20
-95.996388947925013
 30
0.0
  0
VERTEX
  5
F68
  8
DATA
  6
CONTINUOUS
 62
     7
 10
12.209375
 20
-96.129738557300001
 30
0.0
  0
VERTEX
  5
F69
  8
DATA
  6
CONTINUOUS
 62
     7
 10
12.207177734375
 20
-96.26357644792499
 30
0.0
  0
VERTEX
  5
F6A
  8
DATA
  6
CONTINUOUS
 62
     7
 10
12.20527343750001
 20
-96.397902619800035
 30
0.0
  0
VERTEX
  5
F6B
  8
DATA
  6
CONTINUOUS
 62
     7
 10
12.203662109374999
 20
-96.532717072925067
 30
0.0
  0
VERTEX
  5
F6C
  8
DATA
  6
CONTINUOUS
 62
     7
 10
12.20234374999999
 20
-96.668019807300013
 30
0.0
  0
VERTEX
  5
F6D
  8
DATA
  6
CONTINUOUS
 62
     7
 10
12.201318359374991
 20
-96.803810822925001
 30
0.0
  0
VERTEX
  5
F6E
  8
DATA
  6
CONTINUOUS
 62
     7
 10
12.20058593750001
 20
-96.940090119800004
 30
0.0
  0
VERTEX
  5
F6F
  8
DATA
  6
CONTINUOUS
 62
     7
 10
12.20014648437499
 20
-97.076857697924993
 30
0.0
  0
VERTEX
  5
F70
  8
DATA
  6
CONTINUOUS
 62
     7
 10
12.199999999999999
 20
-97.214113557299996
 30
0.0
  0
VERTEX
  5
F71
  8
DATA
  6
CONTINUOUS
 62
     7
 10
12.1998291015625
 20
-97.352009273054605
 30
0.0
  0
VERTEX
  5
F72
  8
DATA
  6
CONTINUOUS
 62
     7
 10
12.19931640625
 20
-97.490696420318358
 30
0.0
  0
VERTEX
  5
F73
  8
DATA
  6
CONTINUOUS
 62
     7
 10
12.1984619140625
 20
-97.630174999091281
 30
0.0
  0
VERTEX
  5
F74
  8
DATA
  6
CONTINUOUS
 62
     7
 10
12.197265625
 20
-97.770445009373361
 30
0.0
  0
VERTEX
  5
F75
  8
DATA
  6
CONTINUOUS
 62
     7
 10
12.195727539062499
 20
-97.911506451164627
 30
0.0
  0
VERTEX
  5
F76
  8
DATA
  6
CONTINUOUS
 62
     7
 10
12.19384765625
 20
-98.053359324465063
 30
0.0
  0
VERTEX
  5
F77
  8
DATA
  6
CONTINUOUS
 62
     7
 10
12.1916259765625
 20
-98.196003629274614
 30
0.0
  0
VERTEX
  5
F78
  8
DATA
  6
CONTINUOUS
 62
     7
 10
12.1890625
 20
-98.339439365593435
 30
0.0
  0
VERTEX
  5
F79
  8
DATA
  6
CONTINUOUS
 62
     7
 10
12.1861572265625
 20
-98.483666533421314
 30
0.0
  0
VERTEX
  5
F7A
  8
DATA
  6
CONTINUOUS
 62
     7
 10
12.182910156249999
 20
-98.62868513275842
 30
0.0
  0
VERTEX
  5
F7B
  8
DATA
  6
CONTINUOUS
 62
     7
 10
12.1793212890625
 20
-98.774495163604712
 30
0.0
  0
VERTEX
  5
F7C
  8
DATA
  6
CONTINUOUS
 62
     7
 10
12.175390625
 20
-98.921096625960132
 30
0.0
  0
VERTEX
  5
F7D
  8
DATA
  6
CONTINUOUS
 62
     7
 10
12.1711181640625
 20
-99.068489519824709
 30
0.0
  0
VERTEX
  5
F7E
  8
DATA
  6
CONTINUOUS
 62
     7
 10
12.16650390625
 20
-99.216673845198486
 30
0.0
  0
VERTEX
  5
F7F
  8
DATA
  6
CONTINUOUS
 62
     7
 10
12.161547851562499
 20
-99.365649602081504
 30
0.0
  0
VERTEX
  5
F80
  8
DATA
  6
CONTINUOUS
 62
     7
 10
12.15625
 20
-99.515416790473594
 30
0.0
  0
VERTEX
  5
F81
  8
DATA
  6
CONTINUOUS
 62
     7
 10
12.1506103515625
 20
-99.665975410374855
 30
0.0
  0
VERTEX
  5
F82
  8
DATA
  6
CONTINUOUS
 62
     7
 10
12.14462890625
 20
-99.817325461785273
 30
0.0
  0
VERTEX
  5
F83
  8
DATA
  6
CONTINUOUS
 62
     7
 10
12.1383056640625
 20
-99.969466944704934
 30
0.0
  0
VERTEX
  5
F84
  8
DATA
  6
CONTINUOUS
 62
     7
 10
12.131640624999999
 20
-100.12239985913369
 30
0.0
  0
VERTEX
  5
F85
  8
DATA
  6
CONTINUOUS
 62
     7
 10
12.1246337890625
 20
-100.2761242050716
 30
0.0
  0
VERTEX
  5
F86
  8
DATA
  6
CONTINUOUS
 62
     7
 10
12.11728515625
 20
-100.4306399825187
 30
0.0
  0
VERTEX
  5
F87
  8
DATA
  6
CONTINUOUS
 62
     7
 10
12.1095947265625
 20
-100.5859471914751
 30
0.0
  0
VERTEX
  5
F88
  8
DATA
  6
CONTINUOUS
 62
     7
 10
12.1015625
 20
-100.7420458319405
 30
0.0
  0
VERTEX
  5
F89
  8
DATA
  6
CONTINUOUS
 62
     7
 10
12.093188476562499
 20
-100.8989359039152
 30
0.0
  0
VERTEX
  5
F8A
  8
DATA
  6
CONTINUOUS
 62
     7
 10
12.08447265625
 20
-101.056617407399
 30
0.0
  0
VERTEX
  5
F8B
  8
DATA
  6
CONTINUOUS
 62
     7
 10
12.0754150390625
 20
-101.2150903423919
 30
0.0
  0
VERTEX
  5
F8C
  8
DATA
  6
CONTINUOUS
 62
     7
 10
12.066015625
 20
-101.374354708894
 30
0.0
  0
VERTEX
  5
F8D
  8
DATA
  6
CONTINUOUS
 62
     7
 10
12.0562744140625
 20
-101.5344105069053
 30
0.0
  0
VERTEX
  5
F8E
  8
DATA
  6
CONTINUOUS
 62
     7
 10
12.046191406249999
 20
-101.6952577364258
 30
0.0
  0
VERTEX
  5
F8F
  8
DATA
  6
CONTINUOUS
 62
     7
 10
12.0357666015625
 20
-101.8568963974555
 30
0.0
  0
VERTEX
  5
F90
  8
DATA
  6
CONTINUOUS
 62
     7
 10
12.025
 20
-102.0193264899942
 30
0.0
  0
VERTEX
  5
F91
  8
DATA
  6
CONTINUOUS
 62
     7
 10
12.0138916015625
 20
-102.1825480140422
 30
0.0
  0
VERTEX
  5
F92
  8
DATA
  6
CONTINUOUS
 62
     7
 10
12.00244140625
 20
-102.34656096959939
 30
0.0
  0
VERTEX
  5
F93
  8
DATA
  6
CONTINUOUS
 62
     7
 10
11.990649414062499
 20
-102.51136535666571
 30
0.0
  0
VERTEX
  5
F94
  8
DATA
  6
CONTINUOUS
 62
     7
 10
11.978515625
 20
-102.6769611752412
 30
0.0
  0
VERTEX
  5
F95
  8
DATA
  6
CONTINUOUS
 62
     7
 10
11.9660400390625
 20
-102.8433484253258
 30
0.0
  0
VERTEX
  5
F96
  8
DATA
  6
CONTINUOUS
 62
     7
 10
11.95322265625
 20
-103.0105271069196
 30
0.0
  0
VERTEX
  5
F97
  8
DATA
  6
CONTINUOUS
 62
     7
 10
11.9400634765625
 20
-103.17849722002261
 30
0.0
  0
VERTEX
  5
F98
  8
DATA
  6
CONTINUOUS
 62
     7
 10
11.926562499999999
 20
-103.3472587646348
 30
0.0
  0
VERTEX
  5
F99
  8
DATA
  6
CONTINUOUS
 62
     7
 10
11.9127197265625
 20
-103.5168117407561
 30
0.0
  0
VERTEX
  5
F9A
  8
DATA
  6
CONTINUOUS
 62
     7
 10
11.89853515625
 20
-103.68715614838661
 30
0.0
  0
VERTEX
  5
F9B
  8
DATA
  6
CONTINUOUS
 62
     7
 10
11.88400878906252
 20
-103.8582919875262
 30
0.0
  0
VERTEX
  5
F9C
  8
DATA
  6
CONTINUOUS
 62
     7
 10
11.869140625000011
 20
-104.03021925817509
 30
0.0
  0
VERTEX
  5
F9D
  8
DATA
  6
CONTINUOUS
 62
     7
 10
11.85393066406251
 20
-104.2029379603331
 30
0.0
  0
VERTEX
  5
F9E
  8
DATA
  6
CONTINUOUS
 62
     7
 10
11.838378906250011
 20
-104.3764480940003
 30
0.0
  0
VERTEX
  5
F9F
  8
DATA
  6
CONTINUOUS
 62
     7
 10
11.82248535156252
 20
-104.5507496591766
 30
0.0
  0
VERTEX
  5
FA0
  8
DATA
  6
CONTINUOUS
 62
     7
 10
11.80625000000002
 20
-104.7258426558621
 30
0.0
  0
VERTEX
  5
FA1
  8
DATA
  6
CONTINUOUS
 62
     7
 10
11.789672851562511
 20
-104.9017270840568
 30
0.0
  0
VERTEX
  5
FA2
  8
DATA
  6
CONTINUOUS
 62
     7
 10
11.77275390625001
 20
-105.07840294376059
 30
0.0
  0
VERTEX
  5
FA3
  8
DATA
  6
CONTINUOUS
 62
     7
 10
11.755493164062511
 20
-105.2558702349737
 30
0.0
  0
VERTEX
  5
FA4
  8
DATA
  6
CONTINUOUS
 62
     7
 10
11.73789062500002
 20
-105.4341289576958
 30
0.0
  0
VERTEX
  5
FA5
  8
DATA
  6
CONTINUOUS
 62
     7
 10
11.71994628906252
 20
-105.6131791119271
 30
0.0
  0
VERTEX
  5
FA6
  8
DATA
  6
CONTINUOUS
 62
     7
 10
11.701660156250011
 20
-105.7930206976677
 30
0.0
  0
VERTEX
  5
FA7
  8
DATA
  6
CONTINUOUS
 62
     7
 10
11.68303222656251
 20
-105.9736537149173
 30
0.0
  0
VERTEX
  5
FA8
  8
DATA
  6
CONTINUOUS
 62
     7
 10
11.664062500000011
 20
-106.15507816367619
 30
0.0
  0
VERTEX
  5
FA9
  8
DATA
  6
CONTINUOUS
 62
     7
 10
11.64475097656252
 20
-106.3372940439442
 30
0.0
  0
VERTEX
  5
FAA
  8
DATA
  6
CONTINUOUS
 62
     7
 10
11.62509765625002
 20
-106.5203013557214
 30
0.0
  0
VERTEX
  5
FAB
  8
DATA
  6
CONTINUOUS
 62
     7
 10
11.605102539062511
 20
-106.7041000990077
 30
0.0
  0
VERTEX
  5
FAC
  8
DATA
  6
CONTINUOUS
 62
     7
 10
11.58476562500001
 20
-106.88869027380331
 30
0.0
  0
VERTEX
  5
FAD
  8
DATA
  6
CONTINUOUS
 62
     7
 10
11.564086914062511
 20
-107.07407188010799
 30
0.0
  0
VERTEX
  5
FAE
  8
DATA
  6
CONTINUOUS
 62
     7
 10
11.54306640625002
 20
-107.2602449179218
 30
0.0
  0
VERTEX
  5
FAF
  8
DATA
  6
CONTINUOUS
 62
     7
 10
11.52170410156252
 20
-107.4472093872449
 30
0.0
  0
VERTEX
  5
FB0
  8
DATA
  6
CONTINUOUS
 62
     7
 10
11.500000000000011
 20
-107.6349652880771
 30
0.0
  0
VERTEX
  5
FB1
  8
DATA
  6
CONTINUOUS
 62
     7
 10
11.500000000000011
 20
-107.6349652880771
 30
0.0
  0
SEQEND
  5
FB2
  8
DATA
  6
CONTINUOUS
 62
     7
  0
CIRCLE
  5
773
  8
DATA
  6
CONTINUOUS
 62
     7
 10
-50.244342303603709
 20
-179.0994304790751
 30
0.0
 40
6.0
  0
CIRCLE
  5
774
  8
DATA
  6
CONTINUOUS
 62
     7
 10
-50.244342303603709
 20
-179.0994304790751
 30
0.0
 40
3.75
  0
TEXT
  5
775
  8
DATA
 62
     7
 10
-146.88807687116099
 20
-196.75581266670801
 30
0.0
 40
8.1442057291666661
  1
3/8インチねじ
 41
0.7
 11
-146.88807687116099
 21
-188.61160693754141
 31
0.0
 73
     3
  0
LINE
  5
776
  8
DATA
  6
CONTINUOUS
 62
     7
 10
-55.999445357737322
 20
-162.50000000364659
 30
0.0
 11
-43.999445357737343
 21
-162.50000000364659
 31
0.0
  0
LINE
  5
777
  8
DATA
  6
CONTINUOUS
 62
     7
 10
-55.999445357737322
 20
-162.50000000364659
 30
0.0
 11
-55.999445357737322
 21
-146.4607805473581
 31
0.0
  0
LINE
  5
778
  8
DATA
  6
CONTINUOUS
 62
     7
 10
-43.999445357737343
 20
-162.50000000364659
 30
0.0
 11
-43.999445357737343
 21
-146.4607805473581
 31
0.0
  0
LINE
  5
779
  8
DATA
  6
CONTINUOUS
 62
     7
 10
-54.199445357737382
 20
-133.5000000036467
 30
0.0
 11
-45.799445357737291
 21
-133.5000000036467
 31
0.0
  0
LINE
  5
77A
  8
DATA
  6
CONTINUOUS
 62
     7
 10
-55.999445357737322
 20
-162.50000000364659
 30
0.0
 11
-43.999445357737343
 21
-162.50000000364659
 31
0.0
  0
LINE
  5
77B
  8
DATA
  6
CONTINUOUS
 62
     7
 10
-46.749445357737343
 20
-133.5000000036467
 30
0.0
 11
-52.749445357737343
 21
-133.5000000036467
 31
0.0
  0
LINE
  5
77C
  8
DATA
  6
CONTINUOUS
 62
     7
 10
-46.749445357737343
 20
-29.305694583972329
 30
0.0
 11
-46.749445357737343
 21
-31.762491780429741
 31
0.0
  0
LINE
  5
77D
  8
DATA
  6
CONTINUOUS
 62
     7
 10
-46.749445357737343
 20
-43.564680788846047
 30
0.0
 11
-46.749445357737343
 21
-51.667597618490319
 31
0.0
  0
LINE
  5
77E
  8
DATA
  6
CONTINUOUS
 62
     7
 10
-46.749445357737343
 20
-56.167597618490319
 30
0.0
 11
-46.749445357737343
 21
-107.6349652880771
 31
0.0
  0
LINE
  5
77F
  8
DATA
  6
CONTINUOUS
 62
     7
 10
-46.749445357737343
 20
-112.6349652880771
 30
0.0
 11
-46.749445357737343
 21
-133.5000000036467
 31
0.0
  0
LINE
  5
780
  8
DATA
  6
CONTINUOUS
 62
     7
 10
-54.199445357737382
 20
-133.5000000036467
 30
0.0
 11
-55.222672385374082
 21
-138.6161351418308
 31
0.0
  0
LINE
  5
781
  8
DATA
  6
CONTINUOUS
 62
     7
 10
-45.799445357737291
 20
-133.5000000036467
 30
0.0
 11
-44.776218330100569
 21
-138.6161351418308
 31
0.0
  0
ARC
  5
782
  8
DATA
  6
CONTINUOUS
 62
     7
 10
-15.999445357737329
 20
-146.4607805473581
 30
0.0
 40
39.99999999999995
 50
168.69006752597971
 51
179.99999999999989
  0
ARC
  5
783
  8
DATA
  6
CONTINUOUS
 62
     7
 10
-83.999445357737315
 20
-146.46078054735821
 30
0.0
 40
39.999999999999957
 50
0.0000000000001137
 51
11.309932474020281
  0
ARC
  5
784
  8
DATA
  6
STYLE_05
 62
     7
 10
-50.000000000000021
 20
58.679855209862353
 30
0.0
 40
10.0
 50
0.0
 51
180.0
  0
ARC
  5
785
  8
DATA
  6
STYLE_05
 62
     7
 10
-50.000000000000028
 20
-3.30566899282391
 30
0.0
 40
10.0
 50
180.0
 51
0.0
  0
LINE
  5
786
  8
DATA
  6
STYLE_05
 62
     7
 10
-60.000000000000021
 20
54.158877618682482
 30
0.0
 11
-60.000000000000021
 21
58.679855209862353
 31
0.0
  0
LINE
  5
787
  8
DATA
  6
STYLE_05
 62
     7
 10
-40.000000000000007
 20
54.158877618682482
 30
0.0
 11
-40.000000000000007
 21
58.679855209862353
 31
0.0
  0
LINE
  5
788
  8
DATA
  6
STYLE_05
 62
     7
 10
-60.000000000000028
 20
-2.182749359217524
 30
0.0
 11
-60.000000000000028
 21
53.785886442699997
 31
0.0
  0
LINE
  5
789
  8
DATA
  6
STYLE_05
 62
     7
 10
-40.000000000000028
 20
-2.182749359217524
 30
0.0
 11
-40.000000000000028
 21
53.785886442699997
 31
0.0
  0
LINE
  5
78A
  8
DATA
  6
CONTINUOUS
 62
     7
 10
16.100554642262662
 20
-133.5000000036467
 30
0.0
 11
22.100554642262662
 21
-132.01411355729999
 31
0.0
  0
LINE
  5
78B
  8
DATA
  6
CONTINUOUS
 62
     7
 10
16.100554642262662
 20
-130.50000000364659
 30
0.0
 11
22.100554642262662
 21
-129.01411355729999
 31
0.0
  0
LINE
  5
78C
  8
DATA
  6
CONTINUOUS
 62
     7
 10
16.100554642262662
 20
-127.5000000036466
 30
0.0
 11
22.100554642262662
 21
-126.01411355730001
 31
0.0
  0
LINE
  5
78D
  8
DATA
  6
CONTINUOUS
 62
     7
 10
16.100554642262662
 20
-124.5000000036466
 30
0.0
 11
22.100554642262662
 21
-123.01411355730001
 31
0.0
  0
LINE
  5
78E
  8
DATA
  6
CONTINUOUS
 62
     7
 10
16.100554642262662
 20
-121.5000000036466
 30
0.0
 11
22.100554642262662
 21
-120.01411355730001
 31
0.0
  0
LINE
  5
78F
  8
DATA
  6
CONTINUOUS
 62
     7
 10
16.100554642262662
 20
-118.5000000036467
 30
0.0
 11
22.100554642262662
 21
-117.01411355730001
 31
0.0
  0
LINE
  5
790
  8
DATA
  6
CONTINUOUS
 62
     7
 10
16.100554642262662
 20
-115.5000000036466
 30
0.0
 11
22.100554642262662
 21
-114.01411355730001
 31
0.0
  0
LINE
  5
791
  8
DATA
  6
CONTINUOUS
 62
     7
 10
16.649999999999999
 20
-112.3639311019683
 30
0.0
 11
21.5
 21
-111.1628395578381
 31
0.0
  0
LINE
  5
792
  8
DATA
  6
CONTINUOUS
 62
     7
 10
16.649999999999999
 20
-109.3639311019683
 30
0.0
 11
21.5
 21
-108.1628395578381
 31
0.0
  0
LINE
  5
793
  8
DATA
  6
CONTINUOUS
 62
     7
 10
16.100554642262662
 20
-106.5000000036466
 30
0.0
 11
22.100554642262662
 21
-105.01411355730001
 31
0.0
  0
LINE
  5
794
  8
DATA
  6
CONTINUOUS
 62
     7
 10
16.100554642262662
 20
-103.5000000036466
 30
0.0
 11
22.100554642262662
 21
-102.01411355730001
 31
0.0
  0
LINE
  5
795
  8
DATA
  6
CONTINUOUS
 62
     7
 10
16.100554642262662
 20
-100.5000000036466
 30
0.0
 11
22.100554642262662
 21
-99.014113557300035
 31
0.0
  0
LINE
  5
796
  8
DATA
  6
CONTINUOUS
 62
     7
 10
16.100554642262662
 20
-97.500000003646633
 30
0.0
 11
22.100554642262662
 21
-96.014113557300021
 31
0.0
  0
LINE
  5
797
  8
DATA
  6
CONTINUOUS
 62
     7
 10
16.364468795513641
 20
-94.434642259760864
 30
0.0
 11
22.70649366354515
 21
-92.864054127460648
 31
0.0
  0
LINE
  5
798
  8
DATA
  6
CONTINUOUS
 62
     7
 10
16.835303331200532
 20
-91.318041150586012
 30
0.0
 11
23.453043840167251
 21
-89.679172662633917
 31
0.0
  0
LINE
  5
799
  8
DATA
  6
CONTINUOUS
 62
     7
 10
17.547175791970499
 20
-88.141747543755088
 30
0.0
 11
24.51569810970279
 21
-86.416008733258039
 31
0.0
  0
LINE
  5
79A
  8
DATA
  6
CONTINUOUS
 62
     7
 10
16.878646993938911
 20
-85.307307190419706
 30
0.0
 11
16.878659212441789
 21
-85.307304164535054
 31
0.0
  0
LINE
  5
79B
  8
DATA
  6
CONTINUOUS
 62
     7
 10
18.527643645489722
 20
-84.898936894651314
 30
0.0
 11
25.950868999704891
 21
-83.060591904317164
 31
0.0
  0
LINE
  5
79C
  8
DATA
  6
CONTINUOUS
 62
     7
 10
19.815322874381479
 20
-81.580046042409265
 30
0.0
 11
27.846766806829269
 21
-79.591077095106414
 31
0.0
  0
LINE
  5
79D
  8
DATA
  6
CONTINUOUS
 62
     7
 10
77.258189738418508
 20
-45.166957511567567
 30
0.0
 11
71.258189738418508
 21
-41.702855896429838
 31
0.0
  0
LINE
  5
79E
  8
DATA
  6
CONTINUOUS
 62
     7
 10
74.21209300917954
 20
-46.94034355253271
 30
0.0
 11
68.199344011606513
 21
-43.468881300214257
 31
0.0
  0
LINE
  5
79F
  8
DATA
  6
CONTINUOUS
 62
     7
 10
71.180684922234832
 20
-48.722210085080427
 30
0.0
 11
65.140498284794546
 21
-45.234906703998718
 31
0.0
  0
LINE
  5
7A0
  8
DATA
  6
CONTINUOUS
 62
     7
 10
68.149276835290081
 20
-50.504076617628151
 30
0.0
 11
62.08165255798253
 21
-47.000932107783129
 31
0.0
  0
LINE
  5
7A1
  8
DATA
  6
CONTINUOUS
 62
     7
 10
65.117868748345344
 20
-52.285943150175861
 30
0.0
 11
59.022806831170548
 21
-48.766957511567568
 31
0.0
  0
LINE
  5
7A2
  8
DATA
  6
CONTINUOUS
 62
     7
 10
62.086460661400622
 20
-54.067809682723613
 30
0.0
 11
55.963961104358582
 21
-50.532982915352022
 31
0.0
  0
LINE
  5
7A3
  8
DATA
  6
CONTINUOUS
 62
     7
 10
59.055052574455843
 20
-55.84967621527133
 30
0.0
 11
52.905115377546572
 21
-52.299008319136469
 31
0.0
  0
LINE
  5
7A4
  8
DATA
  6
CONTINUOUS
 62
     7
 10
56.023644487511113
 20
-57.63154274781904
 30
0.0
 11
49.846269650734591
 21
-54.065033722920887
 31
0.0
  0
LINE
  5
7A5
  8
DATA
  6
CONTINUOUS
 62
     7
 10
52.992236400566348
 20
-59.413409280366757
 30
0.0
 11
46.787423923922603
 21
-55.831059126705362
 31
0.0
  0
LINE
  5
7A6
  8
DATA
  6
CONTINUOUS
 62
     7
 10
49.96082831362159
 20
-61.195275812914467
 30
0.0
 11
43.728578197110593
 21
-57.597084530489781
 31
0.0
  0
LINE
  5
7A7
  8
DATA
  6
CONTINUOUS
 62
     7
 10
46.929420226676889
 20
-62.977142345462198
 30
0.0
 11
41.499722367338038
 21
-59.842304824754592
 31
0.0
  0
LINE
  5
7A8
  8
DATA
  6
CONTINUOUS
 62
     7
 10
43.091694204249833
 20
-64.523477067310637
 30
0.0
 11
37.323706125650872
 21
-61.193327597448977
 31
0.0
  0
LINE
  5
7A9
  8
DATA
  6
CONTINUOUS
 62
     7
 10
36.358026274578243
 20
-60.635792075481177
 30
0.0
 11
36.358025450644703
 21
-60.635791599782962
 31
0.0
  0
LINE
  5
7AA
  8
DATA
  6
CONTINUOUS
 62
     7
 10
21.596045454754091
 20
-77.931078448902525
 30
0.0
 11
29.598359821227749
 21
-76.973536558897123
 31
0.0
  0
LINE
  5
7AB
  8
DATA
  6
CONTINUOUS
 62
     7
 10
23.221046428663069
 20
-75.182100854791599
 30
0.0
 11
31.33051597894989
 21
-74.764086960446917
 31
0.0
  0
LINE
  5
7AC
  8
DATA
  6
CONTINUOUS
 62
     7
 10
25.246893103873798
 20
-72.271615166533223
 30
0.0
 11
32.951270588108798
 21
-72.956448720687462
 31
0.0
  0
LINE
  5
7AD
  8
DATA
  6
CONTINUOUS
 62
     7
 10
27.48370654813241
 20
-69.539193531899798
 30
0.0
 11
34.829329432041114
 21
-71.113255578451685
 31
0.0
  0
LINE
  5
7AE
  8
DATA
  6
CONTINUOUS
 62
     7
 10
29.645137347935119
 20
-67.262492673278388
 30
0.0
 11
36.600319061054591
 21
-69.58088657765154
 31
0.0
  0
LINE
  5
7AF
  8
DATA
  6
CONTINUOUS
 62
     7
 10
31.853761694452249
 20
-65.230526173522719
 30
0.0
 11
38.770179177335478
 21
-67.933493925454087
 31
0.0
  0
LINE
  5
7B0
  8
DATA
  6
CONTINUOUS
 62
     7
 10
34.436489014739713
 20
-63.166120607458282
 30
0.0
 11
40.592452042202488
 21
-66.720267518485315
 31
0.0
  0
LINE
  5
7B1
  8
DATA
  6
CONTINUOUS
 62
     7
 10
-44.000000000000021
 20
-29.305694583972329
 30
0.0
 11
-56.000000000000021
 21
-29.305694583972329
 31
0.0
  0
LINE
  5
7B2
  8
DATA
  6
CONTINUOUS
 62
     7
 10
-57.000000000000021
 20
-28.305694583972329
 30
0.0
 11
-57.000000000000021
 21
-13.398727630911051
 31
0.0
  0
LINE
  5
7B3
  8
DATA
  6
CONTINUOUS
 62
     7
 10
-43.000000000000021
 20
-13.398727630911051
 30
0.0
 11
-43.000000000000021
 21
-28.305694583972329
 31
0.0
  0
LINE
  5
7B4
  8
DATA
  6
CONTINUOUS
 62
     7
 10
-56.000000000000021
 20
-12.398727630911051
 30
0.0
 11
-54.16128400909038
 21
-12.398727630911051
 31
0.0
  0
LINE
  5
7B5
  8
DATA
  6
CONTINUOUS
 62
     7
 10
-45.838715990909691
 20
-12.398727630911051
 30
0.0
 11
-44.000000000000021
 21
-12.398727630911051
 31
0.0
  0
ARC
  5
7B6
  8
DATA
  6
CONTINUOUS
 62
     7
 10
-50.000000000000277
 20
-36.805694583972752
 30
0.0
 40
7.5000000000002807
 50
345.7645360825797
 51
354.15773932242439
  0
ARC
  5
7B7
  8
DATA
  6
CONTINUOUS
 62
     7
 10
-50.000000000000277
 20
-36.805694583972752
 30
0.0
 40
7.5000000000002753
 50
5.8422606775747434
 51
14.235463917420461
  0
ARC
  5
7B8
  8
DATA
  6
STYLE_05
 62
     7
 10
-50.000000000000028
 20
51.761517409149761
 30
0.0
 40
10.0
 50
180.0
 51
0.0
  0
LINE
  5
7B9
  8
DATA
  6
CONTINUOUS
 62
     7
 10
-53.250554642262678
 20
-29.305694583972329
 30
0.0
 11
-53.250554642262678
 21
-31.762491780429372
 31
0.0
  0
LINE
  5
7BA
  8
DATA
  6
CONTINUOUS
 62
     7
 10
-53.250554642262678
 20
-43.564680788845379
 30
0.0
 11
-53.250554642262678
 21
-133.5000000036467
 31
0.0
  0
LINE
  5
7BB
  8
DATA
  6
CONTINUOUS
 62
     7
 10
-53.250554642262678
 20
-29.89007275130664
 30
0.0
 11
-46.74944535773782
 21
-29.89007275130664
 31
0.0
  0
ARC
  5
7BC
  8
DATA
  6
CONTINUOUS
 62
     7
 10
-56.000000000000021
 20
-28.305694583972329
 30
0.0
 40
1.0
 50
180.0
 51
270.0
  0
ARC
  5
7BD
  8
DATA
  6
CONTINUOUS
 62
     7
 10
-44.000000000000021
 20
-28.305694583972329
 30
0.0
 40
1.0
 50
270.0
 51
0.0
  0
ARC
  5
7BE
  8
DATA
  6
CONTINUOUS
 62
     7
 10
-44.000000000000021
 20
-13.398727630911051
 30
0.0
 40
1.0
 50
0.0
 51
90.0
  0
ARC
  5
7BF
  8
DATA
  6
CONTINUOUS
 62
     7
 10
-56.000000000000021
 20
-13.398727630911051
 30
0.0
 40
1.0
 50
90.0
 51
180.0
  0
LINE
  5
7C0
  8
DATA
  6
CONTINUOUS
 62
     7
 10
-53.250554642262678
 20
-133.5000000036467
 30
0.0
 11
-46.749445357737343
 21
-132.11411355729999
 31
0.0
  0
LINE
  5
7C1
  8
DATA
  6
CONTINUOUS
 62
     7
 10
-53.250554642262678
 20
-130.50000000364659
 30
0.0
 11
-46.749445357737343
 21
-129.11411355729999
 31
0.0
  0
LINE
  5
7C2
  8
DATA
  6
CONTINUOUS
 62
     7
 10
-53.250554642262678
 20
-127.5000000036466
 30
0.0
 11
-46.749445357737343
 21
-126.1141135573
 31
0.0
  0
LINE
  5
7C3
  8
DATA
  6
CONTINUOUS
 62
     7
 10
-53.250554642262678
 20
-124.5000000036466
 30
0.0
 11
-46.749445357737343
 21
-123.1141135573
 31
0.0
  0
LINE
  5
7C4
  8
DATA
  6
CONTINUOUS
 62
     7
 10
-53.250554642262678
 20
-121.5000000036466
 30
0.0
 11
-46.749445357737343
 21
-120.1141135573
 31
0.0
  0
LINE
  5
7C5
  8
DATA
  6
CONTINUOUS
 62
     7
 10
-53.250554642262678
 20
-118.5000000036467
 30
0.0
 11
-46.749445357737343
 21
-117.1141135573
 31
0.0
  0
LINE
  5
7C6
  8
DATA
  6
CONTINUOUS
 62
     7
 10
-53.250554642262678
 20
-115.5000000036466
 30
0.0
 11
-46.749445357737343
 21
-114.1141135573
 31
0.0
  0
LINE
  5
7C7
  8
DATA
  6
CONTINUOUS
 62
     7
 10
-53.250554642262678
 20
-106.5000000036466
 30
0.0
 11
-46.749445357737343
 21
-105.1141135573
 31
0.0
  0
LINE
  5
7C8
  8
DATA
  6
CONTINUOUS
 62
     7
 10
-53.250554642262678
 20
-103.5000000036466
 30
0.0
 11
-46.749445357737343
 21
-102.1141135573
 31
0.0
  0
LINE
  5
7C9
  8
DATA
  6
CONTINUOUS
 62
     7
 10
-53.250554642262678
 20
-100.5000000036466
 30
0.0
 11
-46.749445357737343
 21
-99.114113557300016
 31
0.0
  0
LINE
  5
7CA
  8
DATA
  6
CONTINUOUS
 62
     7
 10
-53.250554642262678
 20
-97.500000003646633
 30
0.0
 11
-46.749445357737343
 21
-96.114113557300001
 31
0.0
  0
LINE
  5
7CB
  8
DATA
  6
CONTINUOUS
 62
     7
 10
-53.250554642262678
 20
-94.500000003646647
 30
0.0
 11
-46.749445357737343
 21
-93.114113557299987
 31
0.0
  0
LINE
  5
7CC
  8
DATA
  6
CONTINUOUS
 62
     7
 10
-53.250554642262678
 20
-91.500000003646647
 30
0.0
 11
-46.749445357737343
 21
-90.114113557300001
 31
0.0
  0
LINE
  5
7CD
  8
DATA
  6
CONTINUOUS
 62
     7
 10
-53.250554642262678
 20
-88.500000003646633
 30
0.0
 11
-46.749445357737343
 21
-87.114113557300016
 31
0.0
  0
LINE
  5
7CE
  8
DATA
  6
CONTINUOUS
 62
     7
 10
-53.250554642262678
 20
-85.500000003646647
 30
0.0
 11
-46.749445357737343
 21
-84.114113557300016
 31
0.0
  0
LINE
  5
7CF
  8
DATA
  6
CONTINUOUS
 62
     7
 10
-53.250554642262678
 20
-82.500000003646633
 30
0.0
 11
-46.749445357737343
 21
-81.114113557300016
 31
0.0
  0
LINE
  5
7D0
  8
DATA
  6
CONTINUOUS
 62
     7
 10
-53.250554642262678
 20
-79.500000003646633
 30
0.0
 11
-46.749445357737343
 21
-78.114113557300016
 31
0.0
  0
LINE
  5
7D1
  8
DATA
  6
CONTINUOUS
 62
     7
 10
-53.250554642262678
 20
-76.500000003646647
 30
0.0
 11
-46.749445357737343
 21
-75.114113557300016
 31
0.0
  0
LINE
  5
7D2
  8
DATA
  6
CONTINUOUS
 62
     7
 10
-53.250554642262678
 20
-73.500000003646647
 30
0.0
 11
-46.749445357737343
 21
-72.114113557300016
 31
0.0
  0
LINE
  5
7D3
  8
DATA
  6
CONTINUOUS
 62
     7
 10
-53.250554642262678
 20
-70.500000003646662
 30
0.0
 11
-46.749445357737343
 21
-69.114113557300016
 31
0.0
  0
LINE
  5
7D4
  8
DATA
  6
CONTINUOUS
 62
     7
 10
-53.250554642262678
 20
-67.500000003646633
 30
0.0
 11
-46.749445357737343
 21
-66.11411355730003
 31
0.0
  0
LINE
  5
7D5
  8
DATA
  6
CONTINUOUS
 62
     7
 10
-53.250554642262678
 20
-64.500000003646633
 30
0.0
 11
-46.749445357737343
 21
-63.114113557300023
 31
0.0
  0
LINE
  5
7D6
  8
DATA
  6
CONTINUOUS
 62
     7
 10
-53.250554642262678
 20
-61.500000003646647
 30
0.0
 11
-46.749445357737343
 21
-60.114113557300023
 31
0.0
  0
LINE
  5
7D7
  8
DATA
  6
CONTINUOUS
 62
     7
 10
-53.250554642262678
 20
-58.500000003646647
 30
0.0
 11
-46.749445357737343
 21
-57.114113557300023
 31
0.0
  0
LINE
  5
7D8
  8
DATA
  6
CONTINUOUS
 62
     7
 10
-49.345805527451589
 20
-51.667597618490362
 30
0.0
 11
-46.749445357737343
 21
-51.114113557300023
 31
0.0
  0
LINE
  5
7D9
  8
DATA
  6
CONTINUOUS
 62
     7
 10
-53.250554642262678
 20
-49.50000000364664
 30
0.0
 11
-46.749445357737343
 21
-48.114113557300023
 31
0.0
  0
LINE
  5
7DA
  8
DATA
  6
CONTINUOUS
 62
     7
 10
-53.250554642262678
 20
-46.500000003646647
 30
0.0
 11
-46.749445357737343
 21
-45.114113557300023
 31
0.0
  0
LINE
  5
7DB
  8
DATA
  6
CONTINUOUS
 62
     7
 10
-45.750554642262678
 20
-112.6349652880771
 30
0.0
 11
-53.250554642262678
 21
-112.6349652880771
 31
0.0
  0
LINE
  5
7DC
  8
DATA
  6
CONTINUOUS
 62
     7
 10
-45.750554642262678
 20
-107.6349652880771
 30
0.0
 11
-53.250554642262678
 21
-107.6349652880771
 31
0.0
  0
LINE
  5
7DD
  8
DATA
  6
CONTINUOUS
 62
     7
 10
-45.750554642262678
 20
-51.667597618490319
 30
0.0
 11
-45.750554642262678
 21
-56.167597618490319
 31
0.0
  0
LINE
  5
7DE
  8
DATA
  6
CONTINUOUS
 62
     7
 10
-45.750554642262678
 20
-107.6349652880771
 30
0.0
 11
-45.750554642262678
 21
-112.6349652880771
 31
0.0
  0
LINE
  5
7DF
  8
DATA
  6
CONTINUOUS
 62
     7
 10
-45.750554642262678
 20
-56.167597618490319
 30
0.0
 11
-53.250554642262678
 21
-56.167597618490319
 31
0.0
  0
LINE
  5
7E0
  8
DATA
  6
CONTINUOUS
 62
     7
 10
-45.750554642262678
 20
-51.667597618490319
 30
0.0
 11
-53.250554642262678
 21
-51.667597618490319
 31
0.0
  0
ARC
  5
7E1
  8
DATA
  6
CONTINUOUS
 62
     7
 10
-50.000000000000021
 20
54.325517673190383
 30
0.0
 40
4.5
 50
0.0
 51
180.0
  0
ARC
  5
7E2
  8
DATA
  6
CONTINUOUS
 62
     7
 10
-50.000000000000021
 20
51.028019210803421
 30
0.0
 40
4.5
 50
180.0000000000002
 51
0.0
  0
LINE
  5
7E3
  8
DATA
  6
CONTINUOUS
 62
     7
 10
-54.500000000000021
 20
51.028019210803407
 30
0.0
 11
-54.500000000000021
 21
54.325517673190383
 31
0.0
  0
LINE
  5
7E4
  8
DATA
  6
CONTINUOUS
 62
     7
 10
-45.500000000000021
 20
51.028019210803421
 30
0.0
 11
-45.500000000000021
 21
54.685886442700003
 31
0.0
  0
LINE
  5
7E5
  8
DATA
  6
CONTINUOUS
 62
     7
 10
-54.500000000000021
 20
51.028019210803407
 30
0.0
 11
-54.500000000000021
 21
-12.398727630911051
 31
0.0
  0
LINE
  5
7E6
  8
DATA
  6
CONTINUOUS
 62
     7
 10
-45.502245196075172
 20
50.885886442699999
 30
0.0
 11
-45.502245196075172
 21
-12.398727630911051
 31
0.0
  0
LINE
  5
7E7
  8
DATA
  6
CONTINUOUS
 62
     7
 10
-150.0
 20
-200.0
 30
0.0
 11
-75.000000000000014
 21
-200.0
 31
0.0
  0
LINE
  5
7E8
  8
DATA
  6
CONTINUOUS
 62
     7
 10
-75.000000000000014
 20
-200.0
 30
0.0
 11
-53.10969456737358
 21
-181.51857421281571
 31
0.0
  0
LINE
  5
7E9
  8
DATA
  6
CONTINUOUS
 62
     7
 10
-53.10969456737358
 20
-181.51857421281571
 30
0.0
 11
-58.623898930271409
 21
-189.6937183736508
 31
0.0
  0
LINE
  5
7EA
  8
DATA
  6
CONTINUOUS
 62
     7
 10
-53.10969456737358
 20
-181.51857421281571
 30
0.0
 11
-61.972707707719572
 21
-185.84135455424999
 31
0.0
  0
ARC
  5
7EB
  8
DATA
  6
CONTINUOUS
 62
     7
 10
-51.283368823753179
 20
54.584748721850502
 30
0.0
 40
0.75
 50
0.0
 51
180.0
  0
LINE
  5
7EC
  8
DATA
  6
CONTINUOUS
 62
     7
 10
-52.033368823753172
 20
50.32871465104737
 30
0.0
 11
-52.033368823753172
 21
54.584748721850502
 31
0.0
  0
LINE
  5
7ED
  8
DATA
  6
CONTINUOUS
 62
     7
 10
-50.533368823753179
 20
54.584748721850502
 30
0.0
 11
-50.533368823753179
 21
50.32871465104737
 31
0.0
  0
ARC
  5
7EE
  8
DATA
  6
CONTINUOUS
 62
     7
 10
-51.283368823753179
 20
50.32871465104737
 30
0.0
 40
0.75
 50
180.0
 51
0.0
  0
ARC
  5
7EF
  8
DATA
  6
CONTINUOUS
 62
     7
 10
-48.716631176246842
 20
54.584748721850502
 30
0.0
 40
0.75
 50
0.0
 51
180.0
  0
LINE
  5
7F0
  8
DATA
  6
CONTINUOUS
 62
     7
 10
-47.966631176246842
 20
50.32871465104737
 30
0.0
 11
-47.966631176246842
 21
54.584748721850502
 31
0.0
  0
LINE
  5
7F1
  8
DATA
  6
CONTINUOUS
 62
     7
 10
-49.46663117624685
 20
54.584748721850502
 30
0.0
 11
-49.46663117624685
 21
50.32871465104737
 31
0.0
  0
ARC
  5
7F2
  8
DATA
  6
CONTINUOUS
 62
     7
 10
-48.716631176246842
 20
50.32871465104737
 30
0.0
 40
0.75
 50
180.0
 51
0.0
  0
ARC
  5
7F3
  8
DATA
  6
CONTINUOUS
 62
     7
 10
-50.000000000000277
 20
-36.805694583972752
 30
0.0
 40
6.0000000000000071
 50
12.4249077575975
 51
347.57509224240249
  0
ARC
  5
7F4
  8
DATA
  6
CONTINUOUS
 62
     7
 10
-43.987477937600183
 20
-36.805694583972752
 30
0.0
 40
1.300000000000008
 50
27.217190626394999
 51
332.78280937361058
  0
LINE
  5
7F5
  8
DATA
  6
CONTINUOUS
 62
     7
 10
-44.290487102001983
 20
-38.650000000000013
 30
0.0
 11
-42.730300038350038
 21
-38.650000000000013
 31
0.0
  0
LINE
  5
7F6
  8
DATA
  6
CONTINUOUS
 62
     7
 10
-44.290487102001983
 20
-34.961389167945498
 30
0.0
 11
-42.730300038350038
 21
-34.961389167945498
 31
0.0
  0
LINE
  5
7F7
  8
DATA
  6
CONTINUOUS
 62
     7
 10
-42.83141499218236
 20
-36.211120394971353
 30
0.0
 11
-42.538955747741092
 21
-36.0422689714662
 31
0.0
  0
LINE
  5
7F8
  8
DATA
  6
CONTINUOUS
 62
     7
 10
-42.831414992181102
 20
-37.400268772974869
 30
0.0
 11
-42.538955747741092
 21
-37.569120196479297
 31
0.0
  0
LINE
  5
7F9
  8
DATA
  6
CONTINUOUS
 62
     7
 10
-48.150000000000269
 20
-42.513364861765538
 30
0.0
 11
-48.150000000000269
 21
-44.073947468951587
 31
0.0
  0
LINE
  5
7FA
  8
DATA
  6
CONTINUOUS
 62
     7
 10
-51.850000000000257
 20
-44.073947468951587
 30
0.0
 11
-51.850000000000257
 21
-42.513364861765538
 31
0.0
  0
LINE
  5
7FB
  8
DATA
  6
CONTINUOUS
 62
     7
 10
-57.268252884979297
 20
-34.955694583972772
 30
0.0
 11
-55.707670277792971
 21
-34.955694583972772
 31
0.0
  0
LINE
  5
7FC
  8
DATA
  6
CONTINUOUS
 62
     7
 10
-55.707670277792971
 20
-38.655694583972739
 30
0.0
 11
-57.268252884979297
 21
-38.655694583972739
 31
0.0
  0
ARC
  5
7FD
  8
DATA
  6
CONTINUOUS
 62
     7
 10
-50.000000000000533
 20
-36.805694583972581
 30
0.0
 40
7.4999999999997424
 50
115.6839902171222
 51
354.15773932242382
  0
ARC
  5
7FE
  8
DATA
  6
CONTINUOUS
 62
     7
 10
-50.000000000000533
 20
-36.805694583972581
 30
0.0
 40
7.4999999999997344
 50
5.8422606775705841
 51
64.316009782868647
  0
TEXT
  5
7FF
  8
DATA
 62
     7
 10
53.007975215449171
 20
-146.40763909538501
 30
0.0
 40
8.1442057291666661
  1
ショクマウント(H47)取付け図
 41
0.7
 11
53.007975215449171
 21
-138.26343336621829
 31
0.0
 73
     3
  0
LINE
  5
800
  8
DATA
  6
CONTINUOUS
 62
     7
 10
50.0
 20
-150.0
 30
0.0
 11
200.0
 21
-150.0
 31
0.0
  0
LINE
  5
801
  8
DATA
  6
CONTINUOUS
 62
     7
 10
11.500000000000011
 20
-112.6349652880771
 30
0.0
 11
11.500000000000011
 21
-119.90000000000001
 31
0.0
  0
LINE
  5
802
  8
DATA
  6
CONTINUOUS
 62
     7
 10
14.500000000000011
 20
-112.6349652880771
 30
0.0
 11
14.500000000000011
 21
-119.90000000000001
 31
0.0
  0
LINE
  5
803
  8
DATA
  6
CONTINUOUS
 62
     7
 10
-150.0
 20
200.0
 30
0.0
 11
-40.500000000000007
 21
200.0
 31
0.0
  0
LINE
  5
804
  8
DATA
  6
CONTINUOUS
 62
     7
 10
-40.500000000000007
 20
200.0
 30
0.0
 11
-47.793827527161639
 21
232.24639538324109
 31
0.0
  0
LINE
  5
805
  8
DATA
  6
CONTINUOUS
 62
     7
 10
-47.793827527161639
 20
232.24639538324109
 30
0.0
 11
-43.164365808848089
 21
223.53964420930109
 31
0.0
  0
LINE
  5
806
  8
DATA
  6
CONTINUOUS
 62
     7
 10
-47.793827527161639
 20
232.24639538324109
 30
0.0
 11
-48.137971660224537
 21
222.39139682302229
 31
0.0
  0
ARC
  5
807
  8
DATA
  6
CONTINUOUS
 62
     7
 10
12.250000000000011
 20
-119.90000000000001
 30
0.0
 40
0.75
 50
0.0
 51
180.0
  0
ARC
  5
808
  8
DATA
  6
CONTINUOUS
 62
     7
 10
13.750000000000011
 20
-119.90000000000001
 30
0.0
 40
0.75
 50
180.0
 51
0.0
  0
POLYLINE
  5
809
  8
DATA
  6
CONTINUOUS
 62
     7
 66
     1
 10
0.0
 20
0.0
 30
0.0
 70
   128
  0
VERTEX
  5
FB3
  8
DATA
  6
CONTINUOUS
 62
     7
 10
62.094272293121783
 20
-23.257635406357021
 30
0.0
  0
VERTEX
  5
FB4
  8
DATA
  6
CONTINUOUS
 62
     7
 10
61.948472102392671
 20
-23.41779295113065
 30
0.0
  0
VERTEX
  5
FB5
  8
DATA
  6
CONTINUOUS
 62
     7
 10
61.804463548525419
 20
-23.576867798348761
 30
0.0
  0
VERTEX
  5
FB6
  8
DATA
  6
CONTINUOUS
 62
     7
 10
61.662246631520063
 20
-23.734859948011369
 30
0.0
  0
VERTEX
  5
FB7
  8
DATA
  6
CONTINUOUS
 62
     7
 10
61.521821351376573
 20
-23.891769400118498
 30
0.0
  0
VERTEX
  5
FB8
  8
DATA
  6
CONTINUOUS
 62
     7
 10
61.383187708094958
 20
-24.047596154670138
 30
0.0
  0
VERTEX
  5
FB9
  8
DATA
  6
CONTINUOUS
 62
     7
 10
61.246345701675217
 20
-24.2023402116663
 30
0.0
  0
VERTEX
  5
FBA
  8
DATA
  6
CONTINUOUS
 62
     7
 10
61.111295332117351
 20
-24.356001571106962
 30
0.0
  0
VERTEX
  5
FBB
  8
DATA
  6
CONTINUOUS
 62
     7
 10
60.978036599421372
 20
-24.508580232992131
 30
0.0
  0
VERTEX
  5
FBC
  8
DATA
  6
CONTINUOUS
 62
     7
 10
60.84656950358724
 20
-24.660076197321811
 30
0.0
  0
VERTEX
  5
FBD
  8
DATA
  6
CONTINUOUS
 62
     7
 10
60.71689404461501
 20
-24.810489464096008
 30
0.0
  0
VERTEX
  5
FBE
  8
DATA
  6
CONTINUOUS
 62
     7
 10
60.589010222504662
 20
-24.95982003331472
 30
0.0
  0
VERTEX
  5
FBF
  8
DATA
  6
CONTINUOUS
 62
     7
 10
60.462918037256181
 20
-25.108067904977901
 30
0.0
  0
VERTEX
  5
FC0
  8
DATA
  6
CONTINUOUS
 62
     7
 10
60.338617488869573
 20
-25.25523307908561
 30
0.0
  0
VERTEX
  5
FC1
  8
DATA
  6
CONTINUOUS
 62
     7
 10
60.216108577344848
 20
-25.40131555563784
 30
0.0
  0
VERTEX
  5
FC2
  8
DATA
  6
CONTINUOUS
 62
     7
 10
60.095391302681982
 20
-25.546315334634588
 30
0.0
  0
VERTEX
  5
FC3
  8
DATA
  6
CONTINUOUS
 62
     7
 10
59.976465664881012
 20
-25.690232416075851
 30
0.0
  0
VERTEX
  5
FC4
  8
DATA
  6
CONTINUOUS
 62
     7
 10
59.859331663941902
 20
-25.83306679996161
 30
0.0
  0
VERTEX
  5
FC5
  8
DATA
  6
CONTINUOUS
 62
     7
 10
59.743989299864651
 20
-25.974818486291891
 30
0.0
  0
VERTEX
  5
FC6
  8
DATA
  6
CONTINUOUS
 62
     7
 10
59.630438572649311
 20
-26.11548747506669
 30
0.0
  0
VERTEX
  5
FC7
  8
DATA
  6
CONTINUOUS
 62
     7
 10
59.518679482295838
 20
-26.255073766285971
 30
0.0
  0
VERTEX
  5
FC8
  8
DATA
  6
CONTINUOUS
 62
     7
 10
59.408712028804253
 20
-26.393577359949749
 30
0.0
  0
VERTEX
  5
FC9
  8
DATA
  6
CONTINUOUS
 62
     7
 10
59.300536212174521
 20
-26.530998256058069
 30
0.0
  0
VERTEX
  5
FCA
  8
DATA
  6
CONTINUOUS
 62
     7
 10
59.194152032406677
 20
-26.667336454610911
 30
0.0
  0
VERTEX
  5
FCB
  8
DATA
  6
CONTINUOUS
 62
     7
 10
59.089559489500701
 20
-26.80259195560825
 30
0.0
  0
VERTEX
  5
FCC
  8
DATA
  6
CONTINUOUS
 62
     7
 10
58.986758583456599
 20
-26.93676475905011
 30
0.0
  0
VERTEX
  5
FCD
  8
DATA
  6
CONTINUOUS
 62
     7
 10
58.885749314274378
 20
-27.069854864936449
 30
0.0
  0
VERTEX
  5
FCE
  8
DATA
  6
CONTINUOUS
 62
     7
 10
58.786531681954031
 20
-27.201862273267292
 30
0.0
  0
VERTEX
  5
FCF
  8
DATA
  6
CONTINUOUS
 62
     7
 10
58.689105686495573
 20
-27.332786984042681
 30
0.0
  0
VERTEX
  5
FD0
  8
DATA
  6
CONTINUOUS
 62
     7
 10
58.593471327898961
 20
-27.462628997262559
 30
0.0
  0
VERTEX
  5
FD1
  8
DATA
  6
CONTINUOUS
 62
     7
 10
58.499628606164237
 20
-27.591388312926931
 30
0.0
  0
VERTEX
  5
FD2
  8
DATA
  6
CONTINUOUS
 62
     7
 10
58.407577521291408
 20
-27.719064931035859
 30
0.0
  0
VERTEX
  5
FD3
  8
DATA
  6
CONTINUOUS
 62
     7
 10
58.31731807328044
 20
-27.84565885158926
 30
0.0
  0
VERTEX
  5
FD4
  8
DATA
  6
CONTINUOUS
 62
     7
 10
58.228850262131353
 20
-27.971170074587182
 30
0.0
  0
VERTEX
  5
FD5
  8
DATA
  6
CONTINUOUS
 62
     7
 10
58.14217408784414
 20
-28.095598600029628
 30
0.0
  0
VERTEX
  5
FD6
  8
DATA
  6
CONTINUOUS
 62
     7
 10
58.057289550418787
 20
-28.218944427916568
 30
0.0
  0
VERTEX
  5
FD7
  8
DATA
  6
CONTINUOUS
 62
     7
 10
57.974196649855337
 20
-28.341207558248019
 30
0.0
  0
VERTEX
  5
FD8
  8
DATA
  6
CONTINUOUS
 62
     7
 10
57.892895386153747
 20
-28.46238799102397
 30
0.0
  0
VERTEX
  5
FD9
  8
DATA
  6
CONTINUOUS
 62
     7
 10
57.813385759314052
 20
-28.58248572624445
 30
0.0
  0
VERTEX
  5
FDA
  8
DATA
  6
CONTINUOUS
 62
     7
 10
57.735667769336217
 20
-28.701500763909451
 30
0.0
  0
VERTEX
  5
FDB
  8
DATA
  6
CONTINUOUS
 62
     7
 10
57.659741416220257
 20
-28.819433104018941
 30
0.0
  0
VERTEX
  5
FDC
  8
DATA
  6
CONTINUOUS
 62
     7
 10
57.585606699966171
 20
-28.93628274657295
 30
0.0
  0
VERTEX
  5
FDD
  8
DATA
  6
CONTINUOUS
 62
     7
 10
57.513263620573973
 20
-29.05204969157149
 30
0.0
  0
VERTEX
  5
FDE
  8
DATA
  6
CONTINUOUS
 62
     7
 10
57.442712178043642
 20
-29.166733939014499
 30
0.0
  0
VERTEX
  5
FDF
  8
DATA
  6
CONTINUOUS
 62
     7
 10
57.373952372375179
 20
-29.28033548890204
 30
0.0
  0
VERTEX
  5
FE0
  8
DATA
  6
CONTINUOUS
 62
     7
 10
57.306984203568597
 20
-29.392854341234091
 30
0.0
  0
VERTEX
  5
FE1
  8
DATA
  6
CONTINUOUS
 62
     7
 10
57.241807671623889
 20
-29.50429049601064
 30
0.0
  0
VERTEX
  5
FE2
  8
DATA
  6
CONTINUOUS
 62
     7
 10
57.178422776541062
 20
-29.614643953231731
 30
0.0
  0
VERTEX
  5
FE3
  8
DATA
  6
CONTINUOUS
 62
     7
 10
57.116829518320117
 20
-29.723914712897312
 30
0.0
  0
VERTEX
  5
FE4
  8
DATA
  6
CONTINUOUS
 62
     7
 10
57.057027896961031
 20
-29.832102775007399
 30
0.0
  0
VERTEX
  5
FE5
  8
DATA
  6
CONTINUOUS
 62
     7
 10
56.999017912463849
 20
-29.93920813956203
 30
0.0
  0
VERTEX
  5
FE6
  8
DATA
  6
CONTINUOUS
 62
     7
 10
56.942799564828512
 20
-30.04523080656114
 30
0.0
  0
VERTEX
  5
FE7
  8
DATA
  6
CONTINUOUS
 62
     7
 10
56.888372854055063
 20
-30.15017077600476
 30
0.0
  0
VERTEX
  5
FE8
  8
DATA
  6
CONTINUOUS
 62
     7
 10
56.835737780143482
 20
-30.254028047892891
 30
0.0
  0
VERTEX
  5
FE9
  8
DATA
  6
CONTINUOUS
 62
     7
 10
56.784894343093796
 20
-30.35680262222554
 30
0.0
  0
VERTEX
  5
FEA
  8
DATA
  6
CONTINUOUS
 62
     7
 10
56.735842542905971
 20
-30.45849449900269
 30
0.0
  0
VERTEX
  5
FEB
  8
DATA
  6
CONTINUOUS
 62
     7
 10
56.688582379580012
 20
-30.55910367822435
 30
0.0
  0
VERTEX
  5
FEC
  8
DATA
  6
CONTINUOUS
 62
     7
 10
56.643113853115949
 20
-30.658630159890521
 30
0.0
  0
VERTEX
  5
FED
  8
DATA
  6
CONTINUOUS
 62
     7
 10
56.599436963513753
 20
-30.75707394400121
 30
0.0
  0
VERTEX
  5
FEE
  8
DATA
  6
CONTINUOUS
 62
     7
 10
56.557551710773438
 20
-30.85443503055637
 30
0.0
  0
VERTEX
  5
FEF
  8
DATA
  6
CONTINUOUS
 62
     7
 10
56.517458094895012
 20
-30.950713419556081
 30
0.0
  0
VERTEX
  5
FF0
  8
DATA
  6
CONTINUOUS
 62
     7
 10
56.479156115878439
 20
-31.045909111000299
 30
0.0
  0
VERTEX
  5
FF1
  8
DATA
  6
CONTINUOUS
 62
     7
 10
56.442645773723747
 20
-31.140022104888999
 30
0.0
  0
VERTEX
  5
FF2
  8
DATA
  6
CONTINUOUS
 62
     7
 10
56.407927068430929
 20
-31.233052401222238
 30
0.0
  0
VERTEX
  5
FF3
  8
DATA
  6
CONTINUOUS
 62
     7
 10
56.375
 20
-31.324999999999989
 30
0.0
  0
VERTEX
  5
FF4
  8
DATA
  6
CONTINUOUS
 62
     7
 10
56.343127441406253
 20
-31.416046142578129
 30
0.0
  0
VERTEX
  5
FF5
  8
DATA
  6
CONTINUOUS
 62
     7
 10
56.311572265625003
 20
-31.506372070312491
 30
0.0
  0
VERTEX
  5
FF6
  8
DATA
  6
CONTINUOUS
 62
     7
 10
56.28033447265625
 20
-31.595977783203129
 30
0.0
  0
VERTEX
  5
FF7
  8
DATA
  6
CONTINUOUS
 62
     7
 10
56.249414062500001
 20
-31.684863281249989
 30
0.0
  0
VERTEX
  5
FF8
  8
DATA
  6
CONTINUOUS
 62
     7
 10
56.21881103515625
 20
-31.773028564453121
 30
0.0
  0
VERTEX
  5
FF9
  8
DATA
  6
CONTINUOUS
 62
     7
 10
56.188525390625003
 20
-31.8604736328125
 30
0.0
  0
VERTEX
  5
FFA
  8
DATA
  6
CONTINUOUS
 62
     7
 10
56.158557128906253
 20
-31.947198486328119
 30
0.0
  0
VERTEX
  5
FFB
  8
DATA
  6
CONTINUOUS
 62
     7
 10
56.12890625
 20
-32.033203125
 30
0.0
  0
VERTEX
  5
FFC
  8
DATA
  6
CONTINUOUS
 62
     7
 10
56.099572753906251
 20
-32.118487548828121
 30
0.0
  0
VERTEX
  5
FFD
  8
DATA
  6
CONTINUOUS
 62
     7
 10
56.070556640625
 20
-32.203051757812489
 30
0.0
  0
VERTEX
  5
FFE
  8
DATA
  6
CONTINUOUS
 62
     7
 10
56.041857910156253
 20
-32.286895751953132
 30
0.0
  0
VERTEX
  5
FFF
  8
DATA
  6
CONTINUOUS
 62
     7
 10
56.013476562500003
 20
-32.370019531250001
 30
0.0
  0
VERTEX
  5
1000
  8
DATA
  6
CONTINUOUS
 62
     7
 10
55.98541259765625
 20
-32.452423095703132
 30
0.0
  0
VERTEX
  5
1001
  8
DATA
  6
CONTINUOUS
 62
     7
 10
55.957666015625001
 20
-32.534106445312489
 30
0.0
  0
VERTEX
  5
1002
  8
DATA
  6
CONTINUOUS
 62
     7
 10
55.93023681640625
 20
-32.615069580078107
 30
0.0
  0
VERTEX
  5
1003
  8
DATA
  6
CONTINUOUS
 62
     7
 10
55.903125000000003
 20
-32.6953125
 30
0.0
  0
VERTEX
  5
1004
  8
DATA
  6
CONTINUOUS
 62
     7
 10
55.876330566406253
 20
-32.774835205078119
 30
0.0
  0
VERTEX
  5
1005
  8
DATA
  6
CONTINUOUS
 62
     7
 10
55.849853515625
 20
-32.8536376953125
 30
0.0
  0
VERTEX
  5
1006
  8
DATA
  6
CONTINUOUS
 62
     7
 10
55.823693847656251
 20
-32.931719970703121
 30
0.0
  0
VERTEX
  5
1007
  8
DATA
  6
CONTINUOUS
 62
     7
 10
55.7978515625
 20
-33.009082031249989
 30
0.0
  0
VERTEX
  5
1008
  8
DATA
  6
CONTINUOUS
 62
     7
 10
55.772326660156253
 20
-33.085723876953132
 30
0.0
  0
VERTEX
  5
1009
  8
DATA
  6
CONTINUOUS
 62
     7
 10
55.747119140625003
 20
-33.161645507812487
 30
0.0
  0
VERTEX
  5
100A
  8
DATA
  6
CONTINUOUS
 62
     7
 10
55.72222900390625
 20
-33.236846923828118
 30
0.0
  0
VERTEX
  5
100B
  8
DATA
  6
CONTINUOUS
 62
     7
 10
55.697656250000001
 20
-33.311328124999989
 30
0.0
  0
VERTEX
  5
100C
  8
DATA
  6
CONTINUOUS
 62
     7
 10
55.67340087890625
 20
-33.385089111328107
 30
0.0
  0
VERTEX
  5
100D
  8
DATA
  6
CONTINUOUS
 62
     7
 10
55.649462890625003
 20
-33.4581298828125
 30
0.0
  0
VERTEX
  5
100E
  8
DATA
  6
CONTINUOUS
 62
     7
 10
55.625842285156253
 20
-33.530450439453119
 30
0.0
  0
VERTEX
  5
100F
  8
DATA
  6
CONTINUOUS
 62
     7
 10
55.6025390625
 20
-33.60205078125
 30
0.0
  0
VERTEX
  5
1010
  8
DATA
  6
CONTINUOUS
 62
     7
 10
55.579553222656251
 20
-33.672930908203107
 30
0.0
  0
VERTEX
  5
1011
  8
DATA
  6
CONTINUOUS
 62
     7
 10
55.556884765625
 20
-33.743090820312489
 30
0.0
  0
VERTEX
  5
1012
  8
DATA
  6
CONTINUOUS
 62
     7
 10
55.534533691406253
 20
-33.812530517578132
 30
0.0
  0
VERTEX
  5
1013
  8
DATA
  6
CONTINUOUS
 62
     7
 10
55.512500000000003
 20
-33.881250000000001
 30
0.0
  0
VERTEX
  5
1014
  8
DATA
  6
CONTINUOUS
 62
     7
 10
55.49078369140625
 20
-33.949249267578132
 30
0.0
  0
VERTEX
  5
1015
  8
DATA
  6
CONTINUOUS
 62
     7
 10
55.469384765625001
 20
-34.016528320312489
 30
0.0
  0
VERTEX
  5
1016
  8
DATA
  6
CONTINUOUS
 62
     7
 10
55.44830322265625
 20
-34.083087158203107
 30
0.0
  0
VERTEX
  5
1017
  8
DATA
  6
CONTINUOUS
 62
     7
 10
55.427539062500003
 20
-34.14892578125
 30
0.0
  0
VERTEX
  5
1018
  8
DATA
  6
CONTINUOUS
 62
     7
 10
55.407092285156253
 20
-34.214044189453119
 30
0.0
  0
VERTEX
  5
1019
  8
DATA
  6
CONTINUOUS
 62
     7
 10
55.386962890625
 20
-34.2784423828125
 30
0.0
  0
VERTEX
  5
101A
  8
DATA
  6
CONTINUOUS
 62
     7
 10
55.367150878906251
 20
-34.342120361328107
 30
0.0
  0
VERTEX
  5
101B
  8
DATA
  6
CONTINUOUS
 62
     7
 10
55.34765625
 20
-34.405078124999989
 30
0.0
  0
VERTEX
  5
101C
  8
DATA
  6
CONTINUOUS
 62
     7
 10
55.328479003906253
 20
-34.467315673828118
 30
0.0
  0
VERTEX
  5
101D
  8
DATA
  6
CONTINUOUS
 62
     7
 10
55.309619140625003
 20
-34.528833007812487
 30
0.0
  0
VERTEX
  5
101E
  8
DATA
  6
CONTINUOUS
 62
     7
 10
55.29107666015625
 20
-34.589630126953132
 30
0.0
  0
VERTEX
  5
101F
  8
DATA
  6
CONTINUOUS
 62
     7
 10
55.272851562500001
 20
-34.649707031249989
 30
0.0
  0
VERTEX
  5
1020
  8
DATA
  6
CONTINUOUS
 62
     7
 10
55.25494384765625
 20
-34.709063720703121
 30
0.0
  0
VERTEX
  5
1021
  8
DATA
  6
CONTINUOUS
 62
     7
 10
55.237353515625003
 20
-34.7677001953125
 30
0.0
  0
VERTEX
  5
1022
  8
DATA
  6
CONTINUOUS
 62
     7
 10
55.220080566406253
 20
-34.825616455078119
 30
0.0
  0
VERTEX
  5
1023
  8
DATA
  6
CONTINUOUS
 62
     7
 10
55.203125
 20
-34.8828125
 30
0.0
  0
VERTEX
  5
1024
  8
DATA
  6
CONTINUOUS
 62
     7
 10
55.186486816406251
 20
-34.939288330078107
 30
0.0
  0
VERTEX
  5
1025
  8
DATA
  6
CONTINUOUS
 62
     7
 10
55.170166015625
 20
-34.995043945312489
 30
0.0
  0
VERTEX
  5
1026
  8
DATA
  6
CONTINUOUS
 62
     7
 10
55.154162597656253
 20
-35.050079345703132
 30
0.0
  0
VERTEX
  5
1027
  8
DATA
  6
CONTINUOUS
 62
     7
 10
55.138476562500003
 20
-35.104394531250001
 30
0.0
  0
VERTEX
  5
1028
  8
DATA
  6
CONTINUOUS
 62
     7
 10
55.12310791015625
 20
-35.157989501953132
 30
0.0
  0
VERTEX
  5
1029
  8
DATA
  6
CONTINUOUS
 62
     7
 10
55.108056640625001
 20
-35.210864257812489
 30
0.0
  0
VERTEX
  5
102A
  8
DATA
  6
CONTINUOUS
 62
     7
 10
55.09332275390625
 20
-35.263018798828121
 30
0.0
  0
VERTEX
  5
102B
  8
DATA
  6
CONTINUOUS
 62
     7
 10
55.078906250000003
 20
-35.314453125
 30
0.0
  0
VERTEX
  5
102C
  8
DATA
  6
CONTINUOUS
 62
     7
 10
55.064807128906253
 20
-35.365167236328112
 30
0.0
  0
VERTEX
  5
102D
  8
DATA
  6
CONTINUOUS
 62
     7
 10
55.051025390625
 20
-35.4151611328125
 30
0.0
  0
VERTEX
  5
102E
  8
DATA
  6
CONTINUOUS
 62
     7
 10
55.037561035156251
 20
-35.464434814453121
 30
0.0
  0
VERTEX
  5
102F
  8
DATA
  6
CONTINUOUS
 62
     7
 10
55.0244140625
 20
-35.512988281249989
 30
0.0
  0
VERTEX
  5
1030
  8
DATA
  6
CONTINUOUS
 62
     7
 10
55.011584472656253
 20
-35.560821533203132
 30
0.0
  0
VERTEX
  5
1031
  8
DATA
  6
CONTINUOUS
 62
     7
 10
54.999072265625003
 20
-35.607934570312487
 30
0.0
  0
VERTEX
  5
1032
  8
DATA
  6
CONTINUOUS
 62
     7
 10
54.98687744140625
 20
-35.654327392578132
 30
0.0
  0
VERTEX
  5
1033
  8
DATA
  6
CONTINUOUS
 62
     7
 10
54.975000000000001
 20
-35.699999999999989
 30
0.0
  0
VERTEX
  5
1034
  8
DATA
  6
CONTINUOUS
 62
     7
 10
54.963281250000001
 20
-35.745336914062477
 30
0.0
  0
VERTEX
  5
1035
  8
DATA
  6
CONTINUOUS
 62
     7
 10
54.951562500000001
 20
-35.790722656249983
 30
0.0
  0
VERTEX
  5
1036
  8
DATA
  6
CONTINUOUS
 62
     7
 10
54.939843750000001
 20
-35.836157226562477
 30
0.0
  0
VERTEX
  5
1037
  8
DATA
  6
CONTINUOUS
 62
     7
 10
54.928125000000001
 20
-35.881640624999989
 30
0.0
  0
VERTEX
  5
1038
  8
DATA
  6
CONTINUOUS
 62
     7
 10
54.916406250000001
 20
-35.927172851562489
 30
0.0
  0
VERTEX
  5
1039
  8
DATA
  6
CONTINUOUS
 62
     7
 10
54.904687500000001
 20
-35.972753906249977
 30
0.0
  0
VERTEX
  5
103A
  8
DATA
  6
CONTINUOUS
 62
     7
 10
54.892968750000001
 20
-36.018383789062483
 30
0.0
  0
VERTEX
  5
103B
  8
DATA
  6
CONTINUOUS
 62
     7
 10
54.881250000000001
 20
-36.064062499999977
 30
0.0
  0
VERTEX
  5
103C
  8
DATA
  6
CONTINUOUS
 62
     7
 10
54.869531250000001
 20
-36.109790039062489
 30
0.0
  0
VERTEX
  5
103D
  8
DATA
  6
CONTINUOUS
 62
     7
 10
54.857812500000001
 20
-36.155566406249989
 30
0.0
  0
VERTEX
  5
103E
  8
DATA
  6
CONTINUOUS
 62
     7
 10
54.846093750000001
 20
-36.201391601562513
 30
0.0
  0
VERTEX
  5
103F
  8
DATA
  6
CONTINUOUS
 62
     7
 10
54.834375000000001
 20
-36.247265625000011
 30
0.0
  0
VERTEX
  5
1040
  8
DATA
  6
CONTINUOUS
 62
     7
 10
54.822656250000001
 20
-36.293188476562513
 30
0.0
  0
VERTEX
  5
1041
  8
DATA
  6
CONTINUOUS
 62
     7
 10
54.810937500000001
 20
-36.339160156250017
 30
0.0
  0
VERTEX
  5
1042
  8
DATA
  6
CONTINUOUS
 62
     7
 10
54.799218750000001
 20
-36.385180664062517
 30
0.0
  0
VERTEX
  5
1043
  8
DATA
  6
CONTINUOUS
 62
     7
 10
54.787500000000001
 20
-36.431250000000013
 30
0.0
  0
VERTEX
  5
1044
  8
DATA
  6
CONTINUOUS
 62
     7
 10
54.775781250000001
 20
-36.477368164062511
 30
0.0
  0
VERTEX
  5
1045
  8
DATA
  6
CONTINUOUS
 62
     7
 10
54.764062500000001
 20
-36.523535156250013
 30
0.0
  0
VERTEX
  5
1046
  8
DATA
  6
CONTINUOUS
 62
     7
 10
54.752343750000001
 20
-36.569750976562517
 30
0.0
  0
VERTEX
  5
1047
  8
DATA
  6
CONTINUOUS
 62
     7
 10
54.740625000000001
 20
-36.616015625000017
 30
0.0
  0
VERTEX
  5
1048
  8
DATA
  6
CONTINUOUS
 62
     7
 10
54.728906250000001
 20
-36.66232910156252
 30
0.0
  0
VERTEX
  5
1049
  8
DATA
  6
CONTINUOUS
 62
     7
 10
54.717187500000001
 20
-36.708691406250011
 30
0.0
  0
VERTEX
  5
104A
  8
DATA
  6
CONTINUOUS
 62
     7
 10
54.705468750000001
 20
-36.75510253906252
 30
0.0
  0
VERTEX
  5
104B
  8
DATA
  6
CONTINUOUS
 62
     7
 10
54.693750000000001
 20
-36.801562500000017
 30
0.0
  0
VERTEX
  5
104C
  8
DATA
  6
CONTINUOUS
 62
     7
 10
54.682031250000001
 20
-36.848071289062517
 30
0.0
  0
VERTEX
  5
104D
  8
DATA
  6
CONTINUOUS
 62
     7
 10
54.670312500000001
 20
-36.894628906250013
 30
0.0
  0
VERTEX
  5
104E
  8
DATA
  6
CONTINUOUS
 62
     7
 10
54.658593750000001
 20
-36.941235351562511
 30
0.0
  0
VERTEX
  5
104F
  8
DATA
  6
CONTINUOUS
 62
     7
 10
54.646875000000001
 20
-36.987890625000013
 30
0.0
  0
VERTEX
  5
1050
  8
DATA
  6
CONTINUOUS
 62
     7
 10
54.635156250000001
 20
-37.034594726562517
 30
0.0
  0
VERTEX
  5
1051
  8
DATA
  6
CONTINUOUS
 62
     7
 10
54.623437500000001
 20
-37.081347656250017
 30
0.0
  0
VERTEX
  5
1052
  8
DATA
  6
CONTINUOUS
 62
     7
 10
54.611718750000001
 20
-37.128149414062513
 30
0.0
  0
VERTEX
  5
1053
  8
DATA
  6
CONTINUOUS
 62
     7
 10
54.600000000000001
 20
-37.175000000000011
 30
0.0
  0
VERTEX
  5
1054
  8
DATA
  6
CONTINUOUS
 62
     7
 10
54.588281250000001
 20
-37.221899414062513
 30
0.0
  0
VERTEX
  5
1055
  8
DATA
  6
CONTINUOUS
 62
     7
 10
54.576562500000001
 20
-37.268847656250017
 30
0.0
  0
VERTEX
  5
1056
  8
DATA
  6
CONTINUOUS
 62
     7
 10
54.564843750000001
 20
-37.315844726562531
 30
0.0
  0
VERTEX
  5
1057
  8
DATA
  6
CONTINUOUS
 62
     7
 10
54.553125000000001
 20
-37.362890625000013
 30
0.0
  0
VERTEX
  5
1058
  8
DATA
  6
CONTINUOUS
 62
     7
 10
54.541406250000001
 20
-37.409985351562511
 30
0.0
  0
VERTEX
  5
1059
  8
DATA
  6
CONTINUOUS
 62
     7
 10
54.529687500000001
 20
-37.457128906250013
 30
0.0
  0
VERTEX
  5
105A
  8
DATA
  6
CONTINUOUS
 62
     7
 10
54.517968750000001
 20
-37.504321289062531
 30
0.0
  0
VERTEX
  5
105B
  8
DATA
  6
CONTINUOUS
 62
     7
 10
54.506250000000001
 20
-37.551562500000017
 30
0.0
  0
VERTEX
  5
105C
  8
DATA
  6
CONTINUOUS
 62
     7
 10
54.494531250000001
 20
-37.598852539062513
 30
0.0
  0
VERTEX
  5
105D
  8
DATA
  6
CONTINUOUS
 62
     7
 10
54.482812500000001
 20
-37.646191406250011
 30
0.0
  0
VERTEX
  5
105E
  8
DATA
  6
CONTINUOUS
 62
     7
 10
54.471093750000001
 20
-37.693579101562513
 30
0.0
  0
VERTEX
  5
105F
  8
DATA
  6
CONTINUOUS
 62
     7
 10
54.459375000000001
 20
-37.741015625000017
 30
0.0
  0
VERTEX
  5
1060
  8
DATA
  6
CONTINUOUS
 62
     7
 10
54.447656250000001
 20
-37.788500976562531
 30
0.0
  0
VERTEX
  5
1061
  8
DATA
  6
CONTINUOUS
 62
     7
 10
54.435937500000001
 20
-37.83603515625002
 30
0.0
  0
VERTEX
  5
1062
  8
DATA
  6
CONTINUOUS
 62
     7
 10
54.424218750000001
 20
-37.883618164062511
 30
0.0
  0
VERTEX
  5
1063
  8
DATA
  6
CONTINUOUS
 62
     7
 10
54.412500000000001
 20
-37.93125000000002
 30
0.0
  0
VERTEX
  5
1064
  8
DATA
  6
CONTINUOUS
 62
     7
 10
54.400781250000001
 20
-37.978930664062531
 30
0.0
  0
VERTEX
  5
1065
  8
DATA
  6
CONTINUOUS
 62
     7
 10
54.389062500000001
 20
-38.026660156250017
 30
0.0
  0
VERTEX
  5
1066
  8
DATA
  6
CONTINUOUS
 62
     7
 10
54.377343750000001
 20
-38.074438476562513
 30
0.0
  0
VERTEX
  5
1067
  8
DATA
  6
CONTINUOUS
 62
     7
 10
54.365625000000001
 20
-38.122265625000011
 30
0.0
  0
VERTEX
  5
1068
  8
DATA
  6
CONTINUOUS
 62
     7
 10
54.353906250000001
 20
-38.170141601562513
 30
0.0
  0
VERTEX
  5
1069
  8
DATA
  6
CONTINUOUS
 62
     7
 10
54.342187500000001
 20
-38.218066406249989
 30
0.0
  0
VERTEX
  5
106A
  8
DATA
  6
CONTINUOUS
 62
     7
 10
54.330468750000001
 20
-38.266040039062489
 30
0.0
  0
VERTEX
  5
106B
  8
DATA
  6
CONTINUOUS
 62
     7
 10
54.318750000000001
 20
-38.314062499999977
 30
0.0
  0
VERTEX
  5
106C
  8
DATA
  6
CONTINUOUS
 62
     7
 10
54.307031250000001
 20
-38.362133789062469
 30
0.0
  0
VERTEX
  5
106D
  8
DATA
  6
CONTINUOUS
 62
     7
 10
54.295312500000001
 20
-38.410253906249977
 30
0.0
  0
VERTEX
  5
106E
  8
DATA
  6
CONTINUOUS
 62
     7
 10
54.283593750000001
 20
-38.458422851562489
 30
0.0
  0
VERTEX
  5
106F
  8
DATA
  6
CONTINUOUS
 62
     7
 10
54.271875000000001
 20
-38.506640624999989
 30
0.0
  0
VERTEX
  5
1070
  8
DATA
  6
CONTINUOUS
 62
     7
 10
54.260156250000001
 20
-38.554907226562477
 30
0.0
  0
VERTEX
  5
1071
  8
DATA
  6
CONTINUOUS
 62
     7
 10
54.248437500000001
 20
-38.60322265624999
 30
0.0
  0
VERTEX
  5
1072
  8
DATA
  6
CONTINUOUS
 62
     7
 10
54.236718750000001
 20
-38.651586914062477
 30
0.0
  0
VERTEX
  5
1073
  8
DATA
  6
CONTINUOUS
 62
     7
 10
54.225000000000001
 20
-38.699999999999989
 30
0.0
  0
VERTEX
  5
1074
  8
DATA
  6
CONTINUOUS
 62
     7
 10
54.213238525390608
 20
-38.748687744140632
 30
0.0
  0
VERTEX
  5
1075
  8
DATA
  6
CONTINUOUS
 62
     7
 10
54.201391601562491
 20
-38.797875976562487
 30
0.0
  0
VERTEX
  5
1076
  8
DATA
  6
CONTINUOUS
 62
     7
 10
54.189459228515631
 20
-38.847564697265632
 30
0.0
  0
VERTEX
  5
1077
  8
DATA
  6
CONTINUOUS
 62
     7
 10
54.177441406249997
 20
-38.897753906249989
 30
0.0
  0
VERTEX
  5
1078
  8
DATA
  6
CONTINUOUS
 62
     7
 10
54.165338134765612
 20
-38.948443603515607
 30
0.0
  0
VERTEX
  5
1079
  8
DATA
  6
CONTINUOUS
 62
     7
 10
54.153149414062497
 20
-38.9996337890625
 30
0.0
  0
VERTEX
  5
107A
  8
DATA
  6
CONTINUOUS
 62
     7
 10
54.140875244140638
 20
-39.051324462890612
 30
0.0
  0
VERTEX
  5
107B
  8
DATA
  6
CONTINUOUS
 62
     7
 10
54.128515625000013
 20
-39.103515625
 30
0.0
  0
VERTEX
  5
107C
  8
DATA
  6
CONTINUOUS
 62
     7
 10
54.116070556640643
 20
-39.156207275390621
 30
0.0
  0
VERTEX
  5
107D
  8
DATA
  6
CONTINUOUS
 62
     7
 10
54.103540039062501
 20
-39.209399414062489
 30
0.0
  0
VERTEX
  5
107E
  8
DATA
  6
CONTINUOUS
 62
     7
 10
54.090924072265643
 20
-39.263092041015632
 30
0.0
  0
VERTEX
  5
107F
  8
DATA
  6
CONTINUOUS
 62
     7
 10
54.078222656250013
 20
-39.317285156250001
 30
0.0
  0
VERTEX
  5
1080
  8
DATA
  6
CONTINUOUS
 62
     7
 10
54.065435791015638
 20
-39.371978759765632
 30
0.0
  0
VERTEX
  5
1081
  8
DATA
  6
CONTINUOUS
 62
     7
 10
54.052563476562497
 20
-39.427172851562489
 30
0.0
  0
VERTEX
  5
1082
  8
DATA
  6
CONTINUOUS
 62
     7
 10
54.039605712890612
 20
-39.482867431640607
 30
0.0
  0
VERTEX
  5
1083
  8
DATA
  6
CONTINUOUS
 62
     7
 10
54.02656249999999
 20
-39.5390625
 30
0.0
  0
VERTEX
  5
1084
  8
DATA
  6
CONTINUOUS
 62
     7
 10
54.013433837890609
 20
-39.595758056640612
 30
0.0
  0
VERTEX
  5
1085
  8
DATA
  6
CONTINUOUS
 62
     7
 10
54.000219726562491
 20
-39.6529541015625
 30
0.0
  0
VERTEX
  5
1086
  8
DATA
  6
CONTINUOUS
 62
     7
 10
53.986920166015608
 20
-39.710650634765621
 30
0.0
  0
VERTEX
  5
1087
  8
DATA
  6
CONTINUOUS
 62
     7
 10
53.973535156250001
 20
-39.768847656249989
 30
0.0
  0
VERTEX
  5
1088
  8
DATA
  6
CONTINUOUS
 62
     7
 10
53.960064697265608
 20
-39.827545166015632
 30
0.0
  0
VERTEX
  5
1089
  8
DATA
  6
CONTINUOUS
 62
     7
 10
53.946508789062491
 20
-39.886743164062487
 30
0.0
  0
VERTEX
  5
108A
  8
DATA
  6
CONTINUOUS
 62
     7
 10
53.932867431640609
 20
-39.946441650390632
 30
0.0
  0
VERTEX
  5
108B
  8
DATA
  6
CONTINUOUS
 62
     7
 10
53.91914062499999
 20
-40.006640624999989
 30
0.0
  0
VERTEX
  5
108C
  8
DATA
  6
CONTINUOUS
 62
     7
 10
53.905328369140612
 20
-40.067340087890607
 30
0.0
  0
VERTEX
  5
108D
  8
DATA
  6
CONTINUOUS
 62
     7
 10
53.891430664062497
 20
-40.1285400390625
 30
0.0
  0
VERTEX
  5
108E
  8
DATA
  6
CONTINUOUS
 62
     7
 10
53.877447509765638
 20
-40.190240478515612
 30
0.0
  0
VERTEX
  5
108F
  8
DATA
  6
CONTINUOUS
 62
     7
 10
53.863378906250013
 20
-40.25244140625
 30
0.0
  0
VERTEX
  5
1090
  8
DATA
  6
CONTINUOUS
 62
     7
 10
53.849224853515643
 20
-40.315142822265607
 30
0.0
  0
VERTEX
  5
1091
  8
DATA
  6
CONTINUOUS
 62
     7
 10
53.834985351562501
 20
-40.378344726562489
 30
0.0
  0
VERTEX
  5
1092
  8
DATA
  6
CONTINUOUS
 62
     7
 10
53.820660400390643
 20
-40.442047119140632
 30
0.0
  0
VERTEX
  5
1093
  8
DATA
  6
CONTINUOUS
 62
     7
 10
53.806250000000013
 20
-40.506250000000001
 30
0.0
  0
VERTEX
  5
1094
  8
DATA
  6
CONTINUOUS
 62
     7
 10
53.791754150390638
 20
-40.570953369140632
 30
0.0
  0
VERTEX
  5
1095
  8
DATA
  6
CONTINUOUS
 62
     7
 10
53.777172851562497
 20
-40.636157226562489
 30
0.0
  0
VERTEX
  5
1096
  8
DATA
  6
CONTINUOUS
 62
     7
 10
53.762506103515634
 20
-40.701861572265607
 30
0.0
  0
VERTEX
  5
1097
  8
DATA
  6
CONTINUOUS
 62
     7
 10
53.747753906250011
 20
-40.76806640625
 30
0.0
  0
VERTEX
  5
1098
  8
DATA
  6
CONTINUOUS
 62
     7
 10
53.732916259765638
 20
-40.834771728515612
 30
0.0
  0
VERTEX
  5
1099
  8
DATA
  6
CONTINUOUS
 62
     7
 10
53.717993164062491
 20
-40.9019775390625
 30
0.0
  0
VERTEX
  5
109A
  8
DATA
  6
CONTINUOUS
 62
     7
 10
53.702984619140643
 20
-40.969683837890607
 30
0.0
  0
VERTEX
  5
109B
  8
DATA
  6
CONTINUOUS
 62
     7
 10
53.687890625000009
 20
-41.037890624999982
 30
0.0
  0
VERTEX
  5
109C
  8
DATA
  6
CONTINUOUS
 62
     7
 10
53.672711181640643
 20
-41.106597900390632
 30
0.0
  0
VERTEX
  5
109D
  8
DATA
  6
CONTINUOUS
 62
     7
 10
53.657446289062499
 20
-41.175805664062487
 30
0.0
  0
VERTEX
  5
109E
  8
DATA
  6
CONTINUOUS
 62
     7
 10
53.642095947265638
 20
-41.245513916015632
 30
0.0
  0
VERTEX
  5
109F
  8
DATA
  6
CONTINUOUS
 62
     7
 10
53.626660156250011
 20
-41.315722656249982
 30
0.0
  0
VERTEX
  5
10A0
  8
DATA
  6
CONTINUOUS
 62
     7
 10
53.611138916015634
 20
-41.386431884765607
 30
0.0
  0
VERTEX
  5
10A1
  8
DATA
  6
CONTINUOUS
 62
     7
 10
53.59553222656249
 20
-41.457641601562493
 30
0.0
  0
VERTEX
  5
10A2
  8
DATA
  6
CONTINUOUS
 62
     7
 10
53.579840087890631
 20
-41.529351806640612
 30
0.0
  0
VERTEX
  5
10A3
  8
DATA
  6
CONTINUOUS
 62
     7
 10
53.564062500000013
 20
-41.6015625
 30
0.0
  0
VERTEX
  5
10A4
  8
DATA
  6
CONTINUOUS
 62
     7
 10
53.548199462890643
 20
-41.674273681640607
 30
0.0
  0
VERTEX
  5
10A5
  8
DATA
  6
CONTINUOUS
 62
     7
 10
53.532250976562501
 20
-41.747485351562489
 30
0.0
  0
VERTEX
  5
10A6
  8
DATA
  6
CONTINUOUS
 62
     7
 10
53.516217041015643
 20
-41.821197509765618
 30
0.0
  0
VERTEX
  5
10A7
  8
DATA
  6
CONTINUOUS
 62
     7
 10
53.500097656250013
 20
-41.895410156250001
 30
0.0
  0
VERTEX
  5
10A8
  8
DATA
  6
CONTINUOUS
 62
     7
 10
53.483892822265631
 20
-41.970123291015618
 30
0.0
  0
VERTEX
  5
10A9
  8
DATA
  6
CONTINUOUS
 62
     7
 10
53.467602539062497
 20
-42.045336914062489
 30
0.0
  0
VERTEX
  5
10AA
  8
DATA
  6
CONTINUOUS
 62
     7
 10
53.451226806640641
 20
-42.121051025390607
 30
0.0
  0
VERTEX
  5
10AB
  8
DATA
  6
CONTINUOUS
 62
     7
 10
53.434765624999997
 20
-42.197265625
 30
0.0
  0
VERTEX
  5
10AC
  8
DATA
  6
CONTINUOUS
 62
     7
 10
53.418218994140638
 20
-42.273980712890612
 30
0.0
  0
VERTEX
  5
10AD
  8
DATA
  6
CONTINUOUS
 62
     7
 10
53.401586914062499
 20
-42.351196289062493
 30
0.0
  0
VERTEX
  5
10AE
  8
DATA
  6
CONTINUOUS
 62
     7
 10
53.384869384765643
 20
-42.428912353515607
 30
0.0
  0
VERTEX
  5
10AF
  8
DATA
  6
CONTINUOUS
 62
     7
 10
53.368066406250009
 20
-42.507128906249982
 30
0.0
  0
VERTEX
  5
10B0
  8
DATA
  6
CONTINUOUS
 62
     7
 10
53.351177978515643
 20
-42.585845947265632
 30
0.0
  0
VERTEX
  5
10B1
  8
DATA
  6
CONTINUOUS
 62
     7
 10
53.334204101562499
 20
-42.665063476562487
 30
0.0
  0
VERTEX
  5
10B2
  8
DATA
  6
CONTINUOUS
 62
     7
 10
53.317144775390638
 20
-42.744781494140632
 30
0.0
  0
VERTEX
  5
10B3
  8
DATA
  6
CONTINUOUS
 62
     7
 10
53.299999999999997
 20
-42.824999999999982
 30
0.0
  0
VERTEX
  5
10B4
  8
DATA
  6
CONTINUOUS
 62
     7
 10
53.282879638671893
 20
-42.905096435546852
 30
0.0
  0
VERTEX
  5
10B5
  8
DATA
  6
CONTINUOUS
 62
     7
 10
53.265893554687501
 20
-42.984448242187483
 30
0.0
  0
VERTEX
  5
10B6
  8
DATA
  6
CONTINUOUS
 62
     7
 10
53.249041748046892
 20
-43.063055419921859
 30
0.0
  0
VERTEX
  5
10B7
  8
DATA
  6
CONTINUOUS
 62
     7
 10
53.232324218750001
 20
-43.140917968749989
 30
0.0
  0
VERTEX
  5
10B8
  8
DATA
  6
CONTINUOUS
 62
     7
 10
53.215740966796893
 20
-43.218035888671857
 30
0.0
  0
VERTEX
  5
10B9
  8
DATA
  6
CONTINUOUS
 62
     7
 10
53.199291992187497
 20
-43.294409179687477
 30
0.0
  0
VERTEX
  5
10BA
  8
DATA
  6
CONTINUOUS
 62
     7
 10
53.182977294921884
 20
-43.370037841796851
 30
0.0
  0
VERTEX
  5
10BB
  8
DATA
  6
CONTINUOUS
 62
     7
 10
53.166796875000003
 20
-43.444921874999977
 30
0.0
  0
VERTEX
  5
10BC
  8
DATA
  6
CONTINUOUS
 62
     7
 10
53.150750732421884
 20
-43.519061279296857
 30
0.0
  0
VERTEX
  5
10BD
  8
DATA
  6
CONTINUOUS
 62
     7
 10
53.13483886718749
 20
-43.592456054687489
 30
0.0
  0
VERTEX
  5
10BE
  8
DATA
  6
CONTINUOUS
 62
     7
 10
53.119061279296893
 20
-43.665106201171881
 30
0.0
  0
VERTEX
  5
10BF
  8
DATA
  6
CONTINUOUS
 62
     7
 10
53.103417968750001
 20
-43.737011718749997
 30
0.0
  0
VERTEX
  5
10C0
  8
DATA
  6
CONTINUOUS
 62
     7
 10
53.087908935546892
 20
-43.808172607421888
 30
0.0
  0
VERTEX
  5
10C1
  8
DATA
  6
CONTINUOUS
 62
     7
 10
53.072534179687509
 20
-43.878588867187517
 30
0.0
  0
VERTEX
  5
10C2
  8
DATA
  6
CONTINUOUS
 62
     7
 10
53.057293701171893
 20
-43.948260498046892
 30
0.0
  0
VERTEX
  5
10C3
  8
DATA
  6
CONTINUOUS
 62
     7
 10
53.042187500000011
 20
-44.017187500000013
 30
0.0
  0
VERTEX
  5
10C4
  8
DATA
  6
CONTINUOUS
 62
     7
 10
53.027215576171891
 20
-44.085369873046893
 30
0.0
  0
VERTEX
  5
10C5
  8
DATA
  6
CONTINUOUS
 62
     7
 10
53.01237792968751
 20
-44.152807617187513
 30
0.0
  0
VERTEX
  5
10C6
  8
DATA
  6
CONTINUOUS
 62
     7
 10
52.997674560546884
 20
-44.219500732421892
 30
0.0
  0
VERTEX
  5
10C7
  8
DATA
  6
CONTINUOUS
 62
     7
 10
52.983105468750011
 20
-44.28544921875001
 30
0.0
  0
VERTEX
  5
10C8
  8
DATA
  6
CONTINUOUS
 62
     7
 10
52.968670654296893
 20
-44.350653076171888
 30
0.0
  0
VERTEX
  5
10C9
  8
DATA
  6
CONTINUOUS
 62
     7
 10
52.954370117187509
 20
-44.415112304687497
 30
0.0
  0
VERTEX
  5
10CA
  8
DATA
  6
CONTINUOUS
 62
     7
 10
52.940203857421892
 20
-44.478826904296888
 30
0.0
  0
VERTEX
  5
10CB
  8
DATA
  6
CONTINUOUS
 62
     7
 10
52.926171875000009
 20
-44.54179687500001
 30
0.0
  0
VERTEX
  5
10CC
  8
DATA
  6
CONTINUOUS
 62
     7
 10
52.912274169921893
 20
-44.604022216796892
 30
0.0
  0
VERTEX
  5
10CD
  8
DATA
  6
CONTINUOUS
 62
     7
 10
52.898510742187511
 20
-44.665502929687513
 30
0.0
  0
VERTEX
  5
10CE
  8
DATA
  6
CONTINUOUS
 62
     7
 10
52.884881591796891
 20
-44.726239013671893
 30
0.0
  0
VERTEX
  5
10CF
  8
DATA
  6
CONTINUOUS
 62
     7
 10
52.87138671875001
 20
-44.786230468750013
 30
0.0
  0
VERTEX
  5
10D0
  8
DATA
  6
CONTINUOUS
 62
     7
 10
52.858026123046891
 20
-44.845477294921892
 30
0.0
  0
VERTEX
  5
10D1
  8
DATA
  6
CONTINUOUS
 62
     7
 10
52.844799804687511
 20
-44.903979492187517
 30
0.0
  0
VERTEX
  5
10D2
  8
DATA
  6
CONTINUOUS
 62
     7
 10
52.831707763671893
 20
-44.961737060546888
 30
0.0
  0
VERTEX
  5
10D3
  8
DATA
  6
CONTINUOUS
 62
     7
 10
52.818750000000009
 20
-45.018749999999997
 30
0.0
  0
VERTEX
  5
10D4
  8
DATA
  6
CONTINUOUS
 62
     7
 10
52.805926513671892
 20
-45.075018310546881
 30
0.0
  0
VERTEX
  5
10D5
  8
DATA
  6
CONTINUOUS
 62
     7
 10
52.793237304687509
 20
-45.130541992187517
 30
0.0
  0
VERTEX
  5
10D6
  8
DATA
  6
CONTINUOUS
 62
     7
 10
52.780682373046893
 20
-45.185321044921892
 30
0.0
  0
VERTEX
  5
10D7
  8
DATA
  6
CONTINUOUS
 62
     7
 10
52.768261718750011
 20
-45.239355468750013
 30
0.0
  0
VERTEX
  5
10D8
  8
DATA
  6
CONTINUOUS
 62
     7
 10
52.755975341796884
 20
-45.292645263671893
 30
0.0
  0
VERTEX
  5
10D9
  8
DATA
  6
CONTINUOUS
 62
     7
 10
52.74382324218751
 20
-45.345190429687513
 30
0.0
  0
VERTEX
  5
10DA
  8
DATA
  6
CONTINUOUS
 62
     7
 10
52.731805419921891
 20
-45.396990966796892
 30
0.0
  0
VERTEX
  5
10DB
  8
DATA
  6
CONTINUOUS
 62
     7
 10
52.719921875000011
 20
-45.44804687500001
 30
0.0
  0
VERTEX
  5
10DC
  8
DATA
  6
CONTINUOUS
 62
     7
 10
52.708172607421893
 20
-45.498358154296881
 30
0.0
  0
VERTEX
  5
10DD
  8
DATA
  6
CONTINUOUS
 62
     7
 10
52.696557617187509
 20
-45.547924804687497
 30
0.0
  0
VERTEX
  5
10DE
  8
DATA
  6
CONTINUOUS
 62
     7
 10
52.685076904296892
 20
-45.596746826171881
 30
0.0
  0
VERTEX
  5
10DF
  8
DATA
  6
CONTINUOUS
 62
     7
 10
52.673730468750001
 20
-45.64482421875001
 30
0.0
  0
VERTEX
  5
10E0
  8
DATA
  6
CONTINUOUS
 62
     7
 10
52.662518310546893
 20
-45.692156982421892
 30
0.0
  0
VERTEX
  5
10E1
  8
DATA
  6
CONTINUOUS
 62
     7
 10
52.651440429687511
 20
-45.738745117187513
 30
0.0
  0
VERTEX
  5
10E2
  8
DATA
  6
CONTINUOUS
 62
     7
 10
52.640496826171891
 20
-45.784588623046893
 30
0.0
  0
VERTEX
  5
10E3
  8
DATA
  6
CONTINUOUS
 62
     7
 10
52.62968750000001
 20
-45.829687500000013
 30
0.0
  0
VERTEX
  5
10E4
  8
DATA
  6
CONTINUOUS
 62
     7
 10
52.619012451171891
 20
-45.874041748046892
 30
0.0
  0
VERTEX
  5
10E5
  8
DATA
  6
CONTINUOUS
 62
     7
 10
52.608471679687511
 20
-45.91765136718751
 30
0.0
  0
VERTEX
  5
10E6
  8
DATA
  6
CONTINUOUS
 62
     7
 10
52.598065185546901
 20
-45.960516357421881
 30
0.0
  0
VERTEX
  5
10E7
  8
DATA
  6
CONTINUOUS
 62
     7
 10
52.587792968750009
 20
-46.002636718749997
 30
0.0
  0
VERTEX
  5
10E8
  8
DATA
  6
CONTINUOUS
 62
     7
 10
52.577655029296892
 20
-46.044012451171881
 30
0.0
  0
VERTEX
  5
10E9
  8
DATA
  6
CONTINUOUS
 62
     7
 10
52.567651367187509
 20
-46.084643554687489
 30
0.0
  0
VERTEX
  5
10EA
  8
DATA
  6
CONTINUOUS
 62
     7
 10
52.557781982421901
 20
-46.124530029296857
 30
0.0
  0
VERTEX
  5
10EB
  8
DATA
  6
CONTINUOUS
 62
     7
 10
52.548046875000011
 20
-46.163671874999977
 30
0.0
  0
VERTEX
  5
10EC
  8
DATA
  6
CONTINUOUS
 62
     7
 10
52.538446044921891
 20
-46.202069091796851
 30
0.0
  0
VERTEX
  5
10ED
  8
DATA
  6
CONTINUOUS
 62
     7
 10
52.52897949218751
 20
-46.239721679687477
 30
0.0
  0
VERTEX
  5
10EE
  8
DATA
  6
CONTINUOUS
 62
     7
 10
52.519647216796884
 20
-46.276629638671857
 30
0.0
  0
VERTEX
  5
10EF
  8
DATA
  6
CONTINUOUS
 62
     7
 10
52.510449218750011
 20
-46.312792968749989
 30
0.0
  0
VERTEX
  5
10F0
  8
DATA
  6
CONTINUOUS
 62
     7
 10
52.501385498046893
 20
-46.348211669921852
 30
0.0
  0
VERTEX
  5
10F1
  8
DATA
  6
CONTINUOUS
 62
     7
 10
52.492456054687501
 20
-46.382885742187483
 30
0.0
  0
VERTEX
  5
10F2
  8
DATA
  6
CONTINUOUS
 62
     7
 10
52.483660888671892
 20
-46.416815185546859
 30
0.0
  0
VERTEX
  5
10F3
  8
DATA
  6
CONTINUOUS
 62
     7
 10
52.475000000000009
 20
-46.449999999999982
 30
0.0
  0
VERTEX
  5
10F4
  8
DATA
  6
CONTINUOUS
 62
     7
 10
52.466247861222968
 20
-46.482946777343727
 30
0.0
  0
VERTEX
  5
10F5
  8
DATA
  6
CONTINUOUS
 62
     7
 10
52.457178944891901
 20
-46.516162109374982
 30
0.0
  0
VERTEX
  5
10F6
  8
DATA
  6
CONTINUOUS
 62
     7
 10
52.447793251006772
 20
-46.549645996093737
 30
0.0
  0
VERTEX
  5
10F7
  8
DATA
  6
CONTINUOUS
 62
     7
 10
52.438090779567567
 20
-46.583398437500001
 30
0.0
  0
VERTEX
  5
10F8
  8
DATA
  6
CONTINUOUS
 62
     7
 10
52.428071530574329
 20
-46.617419433593732
 30
0.0
  0
VERTEX
  5
10F9
  8
DATA
  6
CONTINUOUS
 62
     7
 10
52.417735504027043
 20
-46.651708984374977
 30
0.0
  0
VERTEX
  5
10FA
  8
DATA
  6
CONTINUOUS
 62
     7
 10
52.407082699925681
 20
-46.686267089843739
 30
0.0
  0
VERTEX
  5
10FB
  8
DATA
  6
CONTINUOUS
 62
     7
 10
52.396113118270257
 20
-46.721093749999973
 30
0.0
  0
VERTEX
  5
10FC
  8
DATA
  6
CONTINUOUS
 62
     7
 10
52.384826759060807
 20
-46.756188964843723
 30
0.0
  0
VERTEX
  5
10FD
  8
DATA
  6
CONTINUOUS
 62
     7
 10
52.373223622297289
 20
-46.79155273437496
 30
0.0
  0
VERTEX
  5
10FE
  8
DATA
  6
CONTINUOUS
 62
     7
 10
52.361303707979722
 20
-46.827185058593727
 30
0.0
  0
VERTEX
  5
10FF
  8
DATA
  6
CONTINUOUS
 62
     7
 10
52.349067016108101
 20
-46.863085937499982
 30
0.0
  0
VERTEX
  5
1100
  8
DATA
  6
CONTINUOUS
 62
     7
 10
52.336513546682397
 20
-46.89925537109373
 30
0.0
  0
VERTEX
  5
1101
  8
DATA
  6
CONTINUOUS
 62
     7
 10
52.323643299702667
 20
-46.935693359374973
 30
0.0
  0
VERTEX
  5
1102
  8
DATA
  6
CONTINUOUS
 62
     7
 10
52.310456275168889
 20
-46.972399902343739
 30
0.0
  0
VERTEX
  5
1103
  8
DATA
  6
CONTINUOUS
 62
     7
 10
52.296952473081042
 20
-47.009374999999977
 30
0.0
  0
VERTEX
  5
1104
  8
DATA
  6
CONTINUOUS
 62
     7
 10
52.28313189343914
 20
-47.046618652343732
 30
0.0
  0
VERTEX
  5
1105
  8
DATA
  6
CONTINUOUS
 62
     7
 10
52.268994536243191
 20
-47.084130859374973
 30
0.0
  0
VERTEX
  5
1106
  8
DATA
  6
CONTINUOUS
 62
     7
 10
52.254540401493188
 20
-47.12191162109373
 30
0.0
  0
VERTEX
  5
1107
  8
DATA
  6
CONTINUOUS
 62
     7
 10
52.239769489189129
 20
-47.159960937499989
 30
0.0
  0
VERTEX
  5
1108
  8
DATA
  6
CONTINUOUS
 62
     7
 10
52.224681799331023
 20
-47.198278808593727
 30
0.0
  0
VERTEX
  5
1109
  8
DATA
  6
CONTINUOUS
 62
     7
 10
52.209277331918841
 20
-47.236865234374953
 30
0.0
  0
VERTEX
  5
110A
  8
DATA
  6
CONTINUOUS
 62
     7
 10
52.193556086952611
 20
-47.275720214843723
 30
0.0
  0
VERTEX
  5
110B
  8
DATA
  6
CONTINUOUS
 62
     7
 10
52.177518064432341
 20
-47.314843749999973
 30
0.0
  0
VERTEX
  5
110C
  8
DATA
  6
CONTINUOUS
 62
     7
 10
52.161163264357988
 20
-47.354235839843732
 30
0.0
  0
VERTEX
  5
110D
  8
DATA
  6
CONTINUOUS
 62
     7
 10
52.144491686729623
 20
-47.393896484374977
 30
0.0
  0
VERTEX
  5
110E
  8
DATA
  6
CONTINUOUS
 62
     7
 10
52.127503331547182
 20
-47.433825683593739
 30
0.0
  0
VERTEX
  5
110F
  8
DATA
  6
CONTINUOUS
 62
     7
 10
52.110198198810693
 20
-47.474023437500001
 30
0.0
  0
VERTEX
  5
1110
  8
DATA
  6
CONTINUOUS
 62
     7
 10
52.092576288520142
 20
-47.51448974609373
 30
0.0
  0
VERTEX
  5
1111
  8
DATA
  6
CONTINUOUS
 62
     7
 10
52.074637600675523
 20
-47.555224609374967
 30
0.0
  0
VERTEX
  5
1112
  8
DATA
  6
CONTINUOUS
 62
     7
 10
52.056382135276863
 20
-47.596228027343727
 30
0.0
  0
VERTEX
  5
1113
  8
DATA
  6
CONTINUOUS
 62
     7
 10
52.037809892324162
 20
-47.637499999999989
 30
0.0
  0
VERTEX
  5
1114
  8
DATA
  6
CONTINUOUS
 62
     7
 10
52.018920871817379
 20
-47.67904052734373
 30
0.0
  0
VERTEX
  5
1115
  8
DATA
  6
CONTINUOUS
 62
     7
 10
51.999715073756562
 20
-47.720849609374973
 30
0.0
  0
VERTEX
  5
1116
  8
DATA
  6
CONTINUOUS
 62
     7
 10
51.98019249814169
 20
-47.762927246093739
 30
0.0
  0
VERTEX
  5
1117
  8
DATA
  6
CONTINUOUS
 62
     7
 10
51.960353144972757
 20
-47.805273437499977
 30
0.0
  0
VERTEX
  5
1118
  8
DATA
  6
CONTINUOUS
 62
     7
 10
51.940197014249783
 20
-47.847888183593732
 30
0.0
  0
VERTEX
  5
1119
  8
DATA
  6
CONTINUOUS
 62
     7
 10
51.919724105972733
 20
-47.890771484374973
 30
0.0
  0
VERTEX
  5
111A
  8
DATA
  6
CONTINUOUS
 62
     7
 10
51.898934420141622
 20
-47.933923339843737
 30
0.0
  0
VERTEX
  5
111B
  8
DATA
  6
CONTINUOUS
 62
     7
 10
51.877827956756477
 20
-47.977343749999989
 30
0.0
  0
VERTEX
  5
111C
  8
DATA
  6
CONTINUOUS
 62
     7
 10
51.85640471581727
 20
-48.021032714843727
 30
0.0
  0
VERTEX
  5
111D
  8
DATA
  6
CONTINUOUS
 62
     7
 10
51.83466469732403
 20
-48.064990234374982
 30
0.0
  0
VERTEX
  5
111E
  8
DATA
  6
CONTINUOUS
 62
     7
 10
51.812607901276721
 20
-48.109216308593759
 30
0.0
  0
VERTEX
  5
111F
  8
DATA
  6
CONTINUOUS
 62
     7
 10
51.79023432767535
 20
-48.153710937500023
 30
0.0
  0
VERTEX
  5
1120
  8
DATA
  6
CONTINUOUS
 62
     7
 10
51.767543976519931
 20
-48.198474121093788
 30
0.0
  0
VERTEX
  5
1121
  8
DATA
  6
CONTINUOUS
 62
     7
 10
51.744536847810451
 20
-48.243505859375041
 30
0.0
  0
VERTEX
  5
1122
  8
DATA
  6
CONTINUOUS
 62
     7
 10
51.721212941546924
 20
-48.288806152343788
 30
0.0
  0
VERTEX
  5
1123
  8
DATA
  6
CONTINUOUS
 62
     7
 10
51.697572257729327
 20
-48.334375000000023
 30
0.0
  0
VERTEX
  5
1124
  8
DATA
  6
CONTINUOUS
 62
     7
 10
51.67361479635769
 20
-48.380212402343759
 30
0.0
  0
VERTEX
  5
1125
  8
DATA
  6
CONTINUOUS
 62
     7
 10
51.649340557431998
 20
-48.426318359375017
 30
0.0
  0
VERTEX
  5
1126
  8
DATA
  6
CONTINUOUS
 62
     7
 10
51.624749540952251
 20
-48.47269287109377
 30
0.0
  0
VERTEX
  5
1127
  8
DATA
  6
CONTINUOUS
 62
     7
 10
51.59984174691845
 20
-48.519335937500038
 30
0.0
  0
VERTEX
  5
1128
  8
DATA
  6
CONTINUOUS
 62
     7
 10
51.574617175330602
 20
-48.566247558593801
 30
0.0
  0
VERTEX
  5
1129
  8
DATA
  6
CONTINUOUS
 62
     7
 10
51.549075826188691
 20
-48.613427734375023
 30
0.0
  0
VERTEX
  5
112A
  8
DATA
  6
CONTINUOUS
 62
     7
 10
51.523217699492733
 20
-48.660876464843803
 30
0.0
  0
VERTEX
  5
112B
  8
DATA
  6
CONTINUOUS
 62
     7
 10
51.49704279524272
 20
-48.70859375000002
 30
0.0
  0
VERTEX
  5
112C
  8
DATA
  6
CONTINUOUS
 62
     7
 10
51.470551113438631
 20
-48.756579589843803
 30
0.0
  0
VERTEX
  5
112D
  8
DATA
  6
CONTINUOUS
 62
     7
 10
51.443742654080502
 20
-48.804833984375009
 30
0.0
  0
VERTEX
  5
112E
  8
DATA
  6
CONTINUOUS
 62
     7
 10
51.416617417168311
 20
-48.853356933593801
 30
0.0
  0
VERTEX
  5
112F
  8
DATA
  6
CONTINUOUS
 62
     7
 10
51.389175402702072
 20
-48.902148437500053
 30
0.0
  0
VERTEX
  5
1130
  8
DATA
  6
CONTINUOUS
 62
     7
 10
51.361416610681779
 20
-48.95120849609377
 30
0.0
  0
VERTEX
  5
1131
  8
DATA
  6
CONTINUOUS
 62
     7
 10
51.333341041107452
 20
-49.000537109375017
 30
0.0
  0
VERTEX
  5
1132
  8
DATA
  6
CONTINUOUS
 62
     7
 10
51.304948693979043
 20
-49.050134277343773
 30
0.0
  0
VERTEX
  5
1133
  8
DATA
  6
CONTINUOUS
 62
     7
 10
51.2762395692966
 20
-49.100000000000009
 30
0.0
  0
VERTEX
  5
1134
  8
DATA
  6
CONTINUOUS
 62
     7
 10
51.245704524510607
 20
-49.151086425781259
 30
0.0
  0
VERTEX
  5
1135
  8
DATA
  6
CONTINUOUS
 62
     7
 10
51.211834417071621
 20
-49.204345703125028
 30
0.0
  0
VERTEX
  5
1136
  8
DATA
  6
CONTINUOUS
 62
     7
 10
51.174629246979642
 20
-49.259777832031261
 30
0.0
  0
VERTEX
  5
1137
  8
DATA
  6
CONTINUOUS
 62
     7
 10
51.134089014234647
 20
-49.3173828125
 30
0.0
  0
VERTEX
  5
1138
  8
DATA
  6
CONTINUOUS
 62
     7
 10
51.090213718836658
 20
-49.377160644531251
 30
0.0
  0
VERTEX
  5
1139
  8
DATA
  6
CONTINUOUS
 62
     7
 10
51.043003360785669
 20
-49.439111328125023
 30
0.0
  0
VERTEX
  5
113A
  8
DATA
  6
CONTINUOUS
 62
     7
 10
50.992457940081692
 20
-49.50323486328125
 30
0.0
  0
VERTEX
  5
113B
  8
DATA
  6
CONTINUOUS
 62
     7
 10
50.938577456724687
 20
-49.569531250000011
 30
0.0
  0
VERTEX
  5
113C
  8
DATA
  6
CONTINUOUS
 62
     7
 10
50.881361910714702
 20
-49.63800048828125
 30
0.0
  0
VERTEX
  5
113D
  8
DATA
  6
CONTINUOUS
 62
     7
 10
50.820811302051709
 20
-49.708642578125009
 30
0.0
  0
VERTEX
  5
113E
  8
DATA
  6
CONTINUOUS
 62
     7
 10
50.756925630735701
 20
-49.781457519531251
 30
0.0
  0
VERTEX
  5
113F
  8
DATA
  6
CONTINUOUS
 62
     7
 10
50.689704896766713
 20
-49.8564453125
 30
0.0
  0
VERTEX
  5
1140
  8
DATA
  6
CONTINUOUS
 62
     7
 10
50.619149100144703
 20
-49.933605957031261
 30
0.0
  0
VERTEX
  5
1141
  8
DATA
  6
CONTINUOUS
 62
     7
 10
50.5452582408697
 20
-50.012939453125028
 30
0.0
  0
VERTEX
  5
1142
  8
DATA
  6
CONTINUOUS
 62
     7
 10
50.468032318941709
 20
-50.094445800781273
 30
0.0
  0
VERTEX
  5
1143
  8
DATA
  6
CONTINUOUS
 62
     7
 10
50.387471334360683
 20
-50.178125000000009
 30
0.0
  0
VERTEX
  5
1144
  8
DATA
  6
CONTINUOUS
 62
     7
 10
50.303575287126677
 20
-50.26397705078125
 30
0.0
  0
VERTEX
  5
1145
  8
DATA
  6
CONTINUOUS
 62
     7
 10
50.216344177239677
 20
-50.352001953125011
 30
0.0
  0
VERTEX
  5
1146
  8
DATA
  6
CONTINUOUS
 62
     7
 10
50.125778004699661
 20
-50.44219970703125
 30
0.0
  0
VERTEX
  5
1147
  8
DATA
  6
CONTINUOUS
 62
     7
 10
50.031876769506638
 20
-50.534570312500009
 30
0.0
  0
VERTEX
  5
1148
  8
DATA
  6
CONTINUOUS
 62
     7
 10
49.934640471660643
 20
-50.629113769531273
 30
0.0
  0
VERTEX
  5
1149
  8
DATA
  6
CONTINUOUS
 62
     7
 10
49.834069111161611
 20
-50.725830078125028
 30
0.0
  0
VERTEX
  5
114A
  8
DATA
  6
CONTINUOUS
 62
     7
 10
49.730162688009607
 20
-50.824719238281261
 30
0.0
  0
VERTEX
  5
114B
  8
DATA
  6
CONTINUOUS
 62
     7
 10
49.62292120220458
 20
-50.925781250000021
 30
0.0
  0
VERTEX
  5
114C
  8
DATA
  6
CONTINUOUS
 62
     7
 10
49.512344653746567
 20
-51.029016113281259
 30
0.0
  0
VERTEX
  5
114D
  8
DATA
  6
CONTINUOUS
 62
     7
 10
49.398433042635538
 20
-51.134423828125009
 30
0.0
  0
VERTEX
  5
114E
  8
DATA
  6
CONTINUOUS
 62
     7
 10
49.281186368871523
 20
-51.24200439453125
 30
0.0
  0
VERTEX
  5
114F
  8
DATA
  6
CONTINUOUS
 62
     7
 10
49.160604632454501
 20
-51.351757812500011
 30
0.0
  0
VERTEX
  5
1150
  8
DATA
  6
CONTINUOUS
 62
     7
 10
49.036687833384477
 20
-51.46368408203125
 30
0.0
  0
VERTEX
  5
1151
  8
DATA
  6
CONTINUOUS
 62
     7
 10
48.909435971661452
 20
-51.577783203125023
 30
0.0
  0
VERTEX
  5
1152
  8
DATA
  6
CONTINUOUS
 62
     7
 10
48.778849047285419
 20
-51.694055175781273
 30
0.0
  0
VERTEX
  5
1153
  8
DATA
  6
CONTINUOUS
 62
     7
 10
48.644927060256393
 20
-51.812500000000021
 30
0.0
  0
VERTEX
  5
1154
  8
DATA
  6
CONTINUOUS
 62
     7
 10
48.507670010574351
 20
-51.933117675781261
 30
0.0
  0
VERTEX
  5
1155
  8
DATA
  6
CONTINUOUS
 62
     7
 10
48.367077898239323
 20
-52.055908203125028
 30
0.0
  0
VERTEX
  5
1156
  8
DATA
  6
CONTINUOUS
 62
     7
 10
48.22315072325128
 20
-52.180871582031259
 30
0.0
  0
VERTEX
  5
1157
  8
DATA
  6
CONTINUOUS
 62
     7
 10
48.075888485610243
 20
-52.308007812500009
 30
0.0
  0
VERTEX
  5
1158
  8
DATA
  6
CONTINUOUS
 62
     7
 10
47.925291185316212
 20
-52.43731689453125
 30
0.0
  0
VERTEX
  5
1159
  8
DATA
  6
CONTINUOUS
 62
     7
 10
47.771358822369173
 20
-52.568798828125011
 30
0.0
  0
VERTEX
  5
115A
  8
DATA
  6
CONTINUOUS
 62
     7
 10
47.614091396769133
 20
-52.70245361328125
 30
0.0
  0
VERTEX
  5
115B
  8
DATA
  6
CONTINUOUS
 62
     7
 10
47.453488908516078
 20
-52.838281250000023
 30
0.0
  0
VERTEX
  5
115C
  8
DATA
  6
CONTINUOUS
 62
     7
 10
47.289551357610037
 20
-52.976281738281259
 30
0.0
  0
VERTEX
  5
115D
  8
DATA
  6
CONTINUOUS
 62
     7
 10
47.12227874405098
 20
-53.116455078125028
 30
0.0
  0
VERTEX
  5
115E
  8
DATA
  6
CONTINUOUS
 62
     7
 10
46.951671067838937
 20
-53.258801269531261
 30
0.0
  0
VERTEX
  5
115F
  8
DATA
  6
CONTINUOUS
 62
     7
 10
46.777728328973893
 20
-53.4033203125
 30
0.0
  0
VERTEX
  5
1160
  8
DATA
  6
CONTINUOUS
 62
     7
 10
46.600450527455848
 20
-53.550012207031251
 30
0.0
  0
VERTEX
  5
1161
  8
DATA
  6
CONTINUOUS
 62
     7
 10
46.419837663284788
 20
-53.698876953125023
 30
0.0
  0
VERTEX
  5
1162
  8
DATA
  6
CONTINUOUS
 62
     7
 10
46.235889736460742
 20
-53.84991455078125
 30
0.0
  0
VERTEX
  5
1163
  8
DATA
  6
CONTINUOUS
 62
     7
 10
46.048606746983673
 20
-54.003125000000011
 30
0.0
  0
VERTEX
  5
1164
  8
DATA
  6
CONTINUOUS
 62
     7
 10
45.85798869485361
 20
-54.15850830078125
 30
0.0
  0
VERTEX
  5
1165
  8
DATA
  6
CONTINUOUS
 62
     7
 10
45.664035580070554
 20
-54.316064453125009
 30
0.0
  0
VERTEX
  5
1166
  8
DATA
  6
CONTINUOUS
 62
     7
 10
45.466747402634489
 20
-54.475793457031251
 30
0.0
  0
VERTEX
  5
1167
  8
DATA
  6
CONTINUOUS
 62
     7
 10
45.266124162545417
 20
-54.6376953125
 30
0.0
  0
VERTEX
  5
1168
  8
DATA
  6
CONTINUOUS
 62
     7
 10
45.062165859803372
 20
-54.801770019531261
 30
0.0
  0
VERTEX
  5
1169
  8
DATA
  6
CONTINUOUS
 62
     7
 10
44.854872494408312
 20
-54.968017578125028
 30
0.0
  0
VERTEX
  5
116A
  8
DATA
  6
CONTINUOUS
 62
     7
 10
44.644244066360237
 20
-55.136437988281273
 30
0.0
  0
VERTEX
  5
116B
  8
DATA
  6
CONTINUOUS
 62
     7
 10
44.430280575659168
 20
-55.307031250000023
 30
0.0
  0
VERTEX
  5
116C
  8
DATA
  6
CONTINUOUS
 62
     7
 10
44.212982022305091
 20
-55.47979736328125
 30
0.0
  0
VERTEX
  5
116D
  8
DATA
  6
CONTINUOUS
 62
     7
 10
43.992348406298028
 20
-55.654736328125011
 30
0.0
  0
VERTEX
  5
116E
  8
DATA
  6
CONTINUOUS
 62
     7
 10
43.768379727637949
 20
-55.83184814453125
 30
0.0
  0
VERTEX
  5
116F
  8
DATA
  6
CONTINUOUS
 62
     7
 10
43.541075986324877
 20
-56.011132812500001
 30
0.0
  0
VERTEX
  5
1170
  8
DATA
  6
CONTINUOUS
 62
     7
 10
43.310437182358811
 20
-56.192590332031251
 30
0.0
  0
VERTEX
  5
1171
  8
DATA
  6
CONTINUOUS
 62
     7
 10
43.076463315739723
 20
-56.376220703125
 30
0.0
  0
VERTEX
  5
1172
  8
DATA
  6
CONTINUOUS
 62
     7
 10
42.839154386467641
 20
-56.562023925781261
 30
0.0
  0
VERTEX
  5
1173
  8
DATA
  6
CONTINUOUS
 62
     7
 10
42.598510394542572
 20
-56.75
 30
0.0
  0
VERTEX
  5
1174
  8
DATA
  6
CONTINUOUS
 62
     7
 10
42.598510394542572
 20
-56.75
 30
0.0
  0
SEQEND
  5
1175
  8
DATA
  6
CONTINUOUS
 62
     7
  0
TEXT
  5
9CD
  8
DATA
 62
     7
 10
195.74063594864231
 20
303.74886861831942
 30
0.0
 40
8.1442057291666661
  1
ウインドスクリーン
 41
0.7
 11
195.74063594864231
 21
311.89307434748599
 31
0.0
 73
     3
  0
LINE
  5
9CE
  8
DATA
  6
CONTINUOUS
 62
     7
 10
279.7000000000001
 20
252.0
 30
0.0
 11
300.0
 21
300.0
 31
0.0
  0
LINE
  5
9CF
  8
DATA
  6
CONTINUOUS
 62
     7
 10
279.7000000000001
 20
252.0
 30
0.0
 11
281.07238673049818
 21
261.76503898958867
 31
0.0
  0
LINE
  5
9D0
  8
DATA
  6
CONTINUOUS
 62
     7
 10
279.7000000000001
 20
252.0
 30
0.0
 11
285.77104126722247
 21
259.7705784686803
 31
0.0
  0
LINE
  5
9D1
  8
DATA
  6
CONTINUOUS
 62
     7
 10
300.0
 20
300.0
 30
0.0
 11
187.5
 21
300.0
 31
0.0
  0
LINE
  5
A58
  8
0
  6
CONTINUOUS
 62
     7
 10
89.650546293786164
 20
-10.922456198324911
 30
0.0
 11
189.21573506483679
 21
46.561532340557036
 31
0.0
  0
LINE
  5
A59
  8
0
  6
CONTINUOUS
 62
     7
 10
85.150546293786164
 20
-3.128227564264964
 30
0.0
 11
192.50996369889671
 21
58.855760974616977
 31
0.0
  0
LINE
  5
A5A
  8
0
  6
CONTINUOUS
 62
     7
 10
189.21573506483679
 20
46.561532340557036
 30
0.0
 11
192.50996369889671
 21
58.855760974616977
 31
0.0
  0
LINE
  5
A5B
  8
0
  6
CONTINUOUS
 62
     7
 10
93.086915244764057
 20
-8.9384676594429457
 30
0.0
 11
88.586915244764072
 21
-1.144239025382997
 31
0.0
  0
LINE
  5
A5C
  8
0
  6
CONTINUOUS
 62
     7
 10
99.149093071255152
 20
-5.4384676594429422
 30
0.0
 11
94.649093071255137
 21
2.355760974617005
 31
0.0
  0
TEXT
  5
A5D
  8
0
 62
     7
 10
100.9800790635572
 20
-1.289736693410231
 30
0.0
 40
3.9092187499999991
  1
AKG
 50
29.99999999999973
 41
0.7
 11
99.025469688557195
 21
2.0957460530402261
 31
0.0
 73
     3
  0
TEXT
  5
A5E
  8
0
 62
     7
 10
109.24598398702101
 20
3.7486686020320472
 30
0.0
 40
3.1273749999999989
  1
C747
 50
29.99999999999973
 41
0.7
 11
107.68229648702111
 21
6.4570547991924121
 31
0.0
 73
     3
  0
LINE
  5
A5F
  8
0
  6
CONTINUOUS
 62
     7
 10
188.34970966105229
 20
46.061532340557036
 30
0.0
 11
191.64393829511221
 21
58.355760974616977
 31
0.0
  0
CIRCLE
  5
A60
  8
0
  6
CONTINUOUS
 62
     7
 10
89.917650708319727
 20
-1.321259944276066
 30
0.0
 40
0.4899999999999949
  0
LINE
  5
A61
  8
0
  6
CONTINUOUS
 62
     7
 10
94.818966052332925
 20
-7.9384676594429449
 30
0.0
 11
90.318966052332939
 21
-0.1442390253829977
 31
0.0
  0
LINE
  5
A62
  8
0
  6
CONTINUOUS
 62
     7
 10
99.365599422201257
 20
-5.3134676594429422
 30
0.0
 11
94.865599422201257
 21
2.480760974617005
 31
0.0
  0
CIRCLE
  5
A63
  8
0
  6
CONTINUOUS
 62
     7
 10
90.667650708319727
 20
-2.6202980499527242
 30
0.0
 40
0.4899999999999949
  0
CIRCLE
  5
A64
  8
0
  6
CONTINUOUS
 62
     7
 10
91.417650708319727
 20
-3.9193361556293822
 30
0.0
 40
0.4899999999999949
  0
CIRCLE
  5
A65
  8
0
  6
CONTINUOUS
 62
     7
 10
92.167650708319727
 20
-5.218374261306038
 30
0.0
 40
0.4899999999999949
  0
CIRCLE
  5
A66
  8
0
  6
CONTINUOUS
 62
     7
 10
92.917650708319727
 20
-6.517412366982696
 30
0.0
 40
0.4899999999999949
  0
CIRCLE
  5
A67
  8
0
  6
CONTINUOUS
 62
     7
 10
93.667650708319727
 20
-7.816450472659354
 30
0.0
 40
0.4899999999999949
  0
ARC
  5
A68
  8
0
  6
CONTINUOUS
 62
     7
 10
101.2799136660534
 20
5.8399146224922136
 30
0.0
 40
0.210000000000008
 50
300.0
 51
119.9999999999999
  0
ARC
  5
A69
  8
0
  6
CONTINUOUS
 62
     7
 10
97.689557720015173
 20
3.7670216505604599
 30
0.0
 40
0.210000000000008
 50
119.9999999999999
 51
300.0
  0
LINE
  5
A6A
  8
0
  6
CONTINUOUS
 62
     7
 10
101.1749136660534
 20
6.0217799572869541
 30
0.0
 11
97.584557720015184
 21
3.9488869853551991
 31
0.0
  0
LINE
  5
A6B
  8
0
  6
CONTINUOUS
 62
     7
 10
97.794557720015192
 20
3.585156315765718
 30
0.0
 11
101.3871870906502
 21
5.6593618500004146
 31
0.0
  0
ARC
  5
A6C
  8
0
  6
CONTINUOUS
 62
     7
 10
108.2081168963289
 20
9.8399146224922145
 30
0.0
 40
0.210000000000008
 50
300.0
 51
119.9999999999999
  0
ARC
  5
A6D
  8
0
  6
CONTINUOUS
 62
     7
 10
104.6177609502907
 20
7.767021650560471
 30
0.0
 40
0.210000000000008
 50
119.9999999999999
 51
300.0
  0
LINE
  5
A6E
  8
0
  6
CONTINUOUS
 62
     7
 10
108.1031168963289
 20
10.021779957286951
 30
0.0
 11
104.5127609502907
 21
7.9488869853551991
 31
0.0
  0
LINE
  5
A6F
  8
0
  6
CONTINUOUS
 62
     7
 10
104.72276095029071
 20
7.5851563157657287
 30
0.0
 11
108.3153903209257
 21
9.6593618500004101
 31
0.0
  0
ARC
  5
A70
  8
0
  6
CONTINUOUS
 62
     7
 10
115.1363201266044
 20
13.839914622492209
 30
0.0
 40
0.210000000000008
 50
300.0
 51
119.9999999999999
  0
ARC
  5
A71
  8
0
  6
CONTINUOUS
 62
     7
 10
111.5459641805662
 20
11.767021650560469
 30
0.0
 40
0.210000000000008
 50
119.9999999999999
 51
300.0
  0
LINE
  5
A72
  8
0
  6
CONTINUOUS
 62
     7
 10
115.0313201266044
 20
14.021779957286951
 30
0.0
 11
111.4409641805662
 21
11.948886985355211
 31
0.0
  0
LINE
  5
A73
  8
0
  6
CONTINUOUS
 62
     7
 10
111.65096418056621
 20
11.58515631576573
 30
0.0
 11
115.2435935512012
 21
13.65936185000041
 31
0.0
  0
ARC
  5
A74
  8
0
  6
CONTINUOUS
 62
     7
 10
122.0645233568799
 20
17.839914622492209
 30
0.0
 40
0.210000000000008
 50
300.0
 51
119.9999999999999
  0
ARC
  5
A75
  8
0
  6
CONTINUOUS
 62
     7
 10
118.4741674108417
 20
15.767021650560469
 30
0.0
 40
0.210000000000008
 50
119.9999999999999
 51
300.0
  0
LINE
  5
A76
  8
0
  6
CONTINUOUS
 62
     7
 10
121.9595233568799
 20
18.021779957286949
 30
0.0
 11
118.3691674108417
 21
15.948886985355211
 31
0.0
  0
LINE
  5
A77
  8
0
  6
CONTINUOUS
 62
     7
 10
118.57916741084171
 20
15.58515631576573
 30
0.0
 11
122.1717967814767
 21
17.659361850000408
 31
0.0
  0
ARC
  5
A78
  8
0
  6
CONTINUOUS
 62
     7
 10
128.9927265871554
 20
21.839914622492209
 30
0.0
 40
0.210000000000008
 50
300.0
 51
119.9999999999999
  0
ARC
  5
A79
  8
0
  6
CONTINUOUS
 62
     7
 10
125.4023706411172
 20
19.767021650560459
 30
0.0
 40
0.210000000000008
 50
119.9999999999999
 51
300.0
  0
LINE
  5
A7A
  8
0
  6
CONTINUOUS
 62
     7
 10
128.8877265871555
 20
22.021779957286949
 30
0.0
 11
125.2973706411172
 21
19.948886985355202
 31
0.0
  0
LINE
  5
A7B
  8
0
  6
CONTINUOUS
 62
     7
 10
125.50737064111721
 20
19.585156315765719
 30
0.0
 11
129.1000000117522
 21
21.659361850000408
 31
0.0
  0
ARC
  5
A7C
  8
0
  6
CONTINUOUS
 62
     7
 10
135.92092981743099
 20
25.839914622492209
 30
0.0
 40
0.210000000000008
 50
300.0
 51
119.9999999999999
  0
ARC
  5
A7D
  8
0
  6
CONTINUOUS
 62
     7
 10
132.33057387139269
 20
23.767021650560459
 30
0.0
 40
0.210000000000008
 50
119.9999999999999
 51
300.0
  0
LINE
  5
A7E
  8
0
  6
CONTINUOUS
 62
     7
 10
135.815929817431
 20
26.021779957286949
 30
0.0
 11
132.2255738713927
 21
23.948886985355202
 31
0.0
  0
LINE
  5
A7F
  8
0
  6
CONTINUOUS
 62
     7
 10
132.43557387139271
 20
23.585156315765719
 30
0.0
 11
136.02820324202779
 21
25.659361850000408
 31
0.0
  0
ARC
  5
A80
  8
0
  6
CONTINUOUS
 62
     7
 10
142.84913304770649
 20
29.839914622492209
 30
0.0
 40
0.210000000000008
 50
300.0
 51
119.9999999999999
  0
ARC
  5
A81
  8
0
  6
CONTINUOUS
 62
     7
 10
139.25877710166819
 20
27.767021650560459
 30
0.0
 40
0.210000000000008
 50
119.9999999999999
 51
300.0
  0
LINE
  5
A82
  8
0
  6
CONTINUOUS
 62
     7
 10
142.7441330477065
 20
30.021779957286949
 30
0.0
 11
139.1537771016682
 21
27.948886985355202
 31
0.0
  0
LINE
  5
A83
  8
0
  6
CONTINUOUS
 62
     7
 10
139.36377710166821
 20
27.585156315765719
 30
0.0
 11
142.95640647230331
 21
29.659361850000408
 31
0.0
  0
ARC
  5
A84
  8
0
  6
CONTINUOUS
 62
     7
 10
149.77733627798199
 20
33.839914622492209
 30
0.0
 40
0.210000000000008
 50
300.0
 51
119.9999999999999
  0
ARC
  5
A85
  8
0
  6
CONTINUOUS
 62
     7
 10
146.18698033194369
 20
31.767021650560459
 30
0.0
 40
0.210000000000008
 50
119.9999999999999
 51
300.0
  0
LINE
  5
A86
  8
0
  6
CONTINUOUS
 62
     7
 10
149.672336277982
 20
34.021779957286952
 30
0.0
 11
146.0819803319437
 21
31.948886985355202
 31
0.0
  0
LINE
  5
A87
  8
0
  6
CONTINUOUS
 62
     7
 10
146.29198033194371
 20
31.585156315765719
 30
0.0
 11
149.88460970257881
 21
33.659361850000408
 31
0.0
  0
ARC
  5
A88
  8
0
  6
CONTINUOUS
 62
     7
 10
156.70553950825749
 20
37.839914622492209
 30
0.0
 40
0.210000000000008
 50
300.0
 51
119.9999999999999
  0
ARC
  5
A89
  8
0
  6
CONTINUOUS
 62
     7
 10
153.11518356221919
 20
35.767021650560459
 30
0.0
 40
0.210000000000008
 50
119.9999999999999
 51
300.0
  0
LINE
  5
A8A
  8
0
  6
CONTINUOUS
 62
     7
 10
156.6005395082575
 20
38.021779957286938
 30
0.0
 11
153.0101835622192
 21
35.948886985355202
 31
0.0
  0
LINE
  5
A8B
  8
0
  6
CONTINUOUS
 62
     7
 10
153.22018356221929
 20
35.585156315765722
 30
0.0
 11
156.81281293285431
 21
37.659361850000408
 31
0.0
  0
ARC
  5
A8C
  8
0
  6
CONTINUOUS
 62
     7
 10
163.63374273853299
 20
41.839914622492202
 30
0.0
 40
0.210000000000008
 50
300.0
 51
119.9999999999999
  0
ARC
  5
A8D
  8
0
  6
CONTINUOUS
 62
     7
 10
160.04338679249469
 20
39.767021650560459
 30
0.0
 40
0.210000000000008
 50
119.9999999999999
 51
300.0
  0
LINE
  5
A8E
  8
0
  6
CONTINUOUS
 62
     7
 10
163.528742738533
 20
42.021779957286938
 30
0.0
 11
159.93838679249481
 21
39.948886985355202
 31
0.0
  0
LINE
  5
A8F
  8
0
  6
CONTINUOUS
 62
     7
 10
160.14838679249479
 20
39.585156315765722
 30
0.0
 11
163.74101616312981
 21
41.659361850000408
 31
0.0
  0
ARC
  5
A90
  8
0
  6
CONTINUOUS
 62
     7
 10
170.56194596880849
 20
45.839914622492202
 30
0.0
 40
0.210000000000008
 50
300.0
 51
119.9999999999999
  0
ARC
  5
A91
  8
0
  6
CONTINUOUS
 62
     7
 10
166.9715900227703
 20
43.767021650560459
 30
0.0
 40
0.210000000000008
 50
119.9999999999999
 51
300.0
  0
LINE
  5
A92
  8
0
  6
CONTINUOUS
 62
     7
 10
170.4569459688085
 20
46.021779957286938
 30
0.0
 11
166.86659002277031
 21
43.948886985355188
 31
0.0
  0
LINE
  5
A93
  8
0
  6
CONTINUOUS
 62
     7
 10
167.07659002277029
 20
43.585156315765722
 30
0.0
 11
170.66921939340531
 21
45.659361850000401
 31
0.0
  0
ARC
  5
A94
  8
0
  6
CONTINUOUS
 62
     7
 10
177.49014919908399
 20
49.839914622492202
 30
0.0
 40
0.210000000000008
 50
300.0
 51
119.9999999999999
  0
ARC
  5
A95
  8
0
  6
CONTINUOUS
 62
     7
 10
173.8997932530458
 20
47.767021650560459
 30
0.0
 40
0.210000000000008
 50
119.9999999999999
 51
300.0
  0
LINE
  5
A96
  8
0
  6
CONTINUOUS
 62
     7
 10
177.385149199084
 20
50.021779957286938
 30
0.0
 11
173.79479325304581
 21
47.948886985355202
 31
0.0
  0
LINE
  5
A97
  8
0
  6
CONTINUOUS
 62
     7
 10
174.00479325304579
 20
47.585156315765708
 30
0.0
 11
177.59742262368081
 21
49.659361850000408
 31
0.0
  0
ARC
  5
A98
  8
0
  6
CONTINUOUS
 62
     7
 10
183.73981503555109
 20
53.448160875521708
 30
0.0
 40
0.210000000000008
 50
300.0
 51
119.9999999999999
  0
ARC
  5
A99
  8
0
  6
CONTINUOUS
 62
     7
 10
180.1494590895129
 20
51.375267903589972
 30
0.0
 40
0.210000000000008
 50
119.9999999999999
 51
300.0
  0
LINE
  5
A9A
  8
0
  6
CONTINUOUS
 62
     7
 10
183.63481503555121
 20
53.630026210316458
 30
0.0
 11
180.04445908951291
 21
51.557133238384701
 31
0.0
  0
LINE
  5
A9B
  8
0
  6
CONTINUOUS
 62
     7
 10
180.25445908951289
 20
51.193402568795221
 30
0.0
 11
183.84708846014789
 21
53.267608103029907
 31
0.0
  0
ARC
  5
A9C
  8
0
  6
CONTINUOUS
 62
     7
 10
105.4818689384024
 20
-1.438085400348192
 30
0.0
 40
0.210000000000008
 50
300.0
 51
119.9999999999999
  0
ARC
  5
A9D
  8
0
  6
CONTINUOUS
 62
     7
 10
101.8915129923642
 20
-3.510978372279947
 30
0.0
 40
0.210000000000008
 50
119.9999999999999
 51
300.0
  0
LINE
  5
A9E
  8
0
  6
CONTINUOUS
 62
     7
 10
105.5868689384024
 20
-1.6199507351429301
 30
0.0
 11
101.9965129923642
 21
-3.692843707074684
 31
0.0
  0
LINE
  5
A9F
  8
0
  6
CONTINUOUS
 62
     7
 10
101.78651299236419
 20
-3.3291130374852069
 30
0.0
 11
105.3791423629992
 21
-1.2549075032505099
 31
0.0
  0
ARC
  5
AA0
  8
0
  6
CONTINUOUS
 62
     7
 10
112.4100721686779
 20
2.561914599651808
 30
0.0
 40
0.210000000000008
 50
300.0
 51
119.9999999999999
  0
ARC
  5
AA1
  8
0
  6
CONTINUOUS
 62
     7
 10
108.8197162226397
 20
0.4890216277200637
 30
0.0
 40
0.210000000000008
 50
119.9999999999999
 51
300.0
  0
LINE
  5
AA2
  8
0
  6
CONTINUOUS
 62
     7
 10
112.5150721686779
 20
2.3800492648570688
 30
0.0
 11
108.9247162226397
 21
0.3071562929253151
 31
0.0
  0
LINE
  5
AA3
  8
0
  6
CONTINUOUS
 62
     7
 10
108.71471622263969
 20
0.6708869625148033
 30
0.0
 11
112.3073455932747
 21
2.7450924967494852
 31
0.0
  0
ARC
  5
AA4
  8
0
  6
CONTINUOUS
 62
     7
 10
119.3382753989534
 20
6.5619145996518062
 30
0.0
 40
0.210000000000008
 50
300.0
 51
119.9999999999999
  0
ARC
  5
AA5
  8
0
  6
CONTINUOUS
 62
     7
 10
115.7479194529152
 20
4.4890216277200636
 30
0.0
 40
0.210000000000008
 50
119.9999999999999
 51
300.0
  0
LINE
  5
AA6
  8
0
  6
CONTINUOUS
 62
     7
 10
119.4432753989534
 20
6.3800492648570666
 30
0.0
 11
115.8529194529152
 21
4.3071562929253249
 31
0.0
  0
LINE
  5
AA7
  8
0
  6
CONTINUOUS
 62
     7
 10
115.64291945291519
 20
4.6708869625148033
 30
0.0
 11
119.2355488235502
 21
6.7450924967494874
 31
0.0
  0
ARC
  5
AA8
  8
0
  6
CONTINUOUS
 62
     7
 10
126.2664786292289
 20
10.5619145996518
 30
0.0
 40
0.210000000000008
 50
300.0
 51
119.9999999999999
  0
ARC
  5
AA9
  8
0
  6
CONTINUOUS
 62
     7
 10
122.6761226831907
 20
8.4890216277200636
 30
0.0
 40
0.210000000000008
 50
119.9999999999999
 51
300.0
  0
LINE
  5
AAA
  8
0
  6
CONTINUOUS
 62
     7
 10
126.3714786292289
 20
10.38004926485706
 30
0.0
 11
122.7811226831907
 21
8.3071562929253222
 31
0.0
  0
LINE
  5
AAB
  8
0
  6
CONTINUOUS
 62
     7
 10
122.57112268319069
 20
8.6708869625148015
 30
0.0
 11
126.1637520538257
 21
10.745092496749489
 31
0.0
  0
ARC
  5
AAC
  8
0
  6
CONTINUOUS
 62
     7
 10
133.19468185950441
 20
14.5619145996518
 30
0.0
 40
0.210000000000008
 50
300.0
 51
119.9999999999999
  0
ARC
  5
AAD
  8
0
  6
CONTINUOUS
 62
     7
 10
129.6043259134662
 20
12.489021627720049
 30
0.0
 40
0.210000000000008
 50
119.9999999999999
 51
300.0
  0
LINE
  5
AAE
  8
0
  6
CONTINUOUS
 62
     7
 10
133.29968185950449
 20
14.38004926485706
 30
0.0
 11
129.70932591346619
 21
12.30715629292531
 31
0.0
  0
LINE
  5
AAF
  8
0
  6
CONTINUOUS
 62
     7
 10
129.49932591346621
 20
12.670886962514791
 30
0.0
 11
133.0919552841012
 21
14.74509249674948
 31
0.0
  0
ARC
  5
AB0
  8
0
  6
CONTINUOUS
 62
     7
 10
140.12288508978
 20
18.5619145996518
 30
0.0
 40
0.210000000000008
 50
300.0
 51
119.9999999999999
  0
ARC
  5
AB1
  8
0
  6
CONTINUOUS
 62
     7
 10
136.5325291437417
 20
16.489021627720049
 30
0.0
 40
0.210000000000008
 50
119.9999999999999
 51
300.0
  0
LINE
  5
AB2
  8
0
  6
CONTINUOUS
 62
     7
 10
140.22788508977999
 20
18.38004926485706
 30
0.0
 11
136.63752914374169
 21
16.30715629292531
 31
0.0
  0
LINE
  5
AB3
  8
0
  6
CONTINUOUS
 62
     7
 10
136.42752914374171
 20
16.670886962514789
 30
0.0
 11
140.02015851437679
 21
18.745092496749479
 31
0.0
  0
ARC
  5
AB4
  8
0
  6
CONTINUOUS
 62
     7
 10
147.0510883200555
 20
22.5619145996518
 30
0.0
 40
0.210000000000008
 50
300.0
 51
119.9999999999999
  0
ARC
  5
AB5
  8
0
  6
CONTINUOUS
 62
     7
 10
143.4607323740172
 20
20.489021627720049
 30
0.0
 40
0.210000000000008
 50
119.9999999999999
 51
300.0
  0
LINE
  5
AB6
  8
0
  6
CONTINUOUS
 62
     7
 10
147.15608832005549
 20
22.38004926485706
 30
0.0
 11
143.5657323740173
 21
20.30715629292531
 31
0.0
  0
LINE
  5
AB7
  8
0
  6
CONTINUOUS
 62
     7
 10
143.35573237401721
 20
20.670886962514789
 30
0.0
 11
146.94836174465229
 21
22.745092496749489
 31
0.0
  0
ARC
  5
AB8
  8
0
  6
CONTINUOUS
 62
     7
 10
153.979291550331
 20
26.5619145996518
 30
0.0
 40
0.210000000000008
 50
300.0
 51
119.9999999999999
  0
ARC
  5
AB9
  8
0
  6
CONTINUOUS
 62
     7
 10
150.38893560429281
 20
24.48902162772006
 30
0.0
 40
0.210000000000008
 50
119.9999999999999
 51
300.0
  0
LINE
  5
ABA
  8
0
  6
CONTINUOUS
 62
     7
 10
154.08429155033099
 20
26.38004926485706
 30
0.0
 11
150.4939356042928
 21
24.30715629292532
 31
0.0
  0
LINE
  5
ABB
  8
0
  6
CONTINUOUS
 62
     7
 10
150.28393560429271
 20
24.670886962514789
 30
0.0
 11
153.87656497492779
 21
26.745092496749479
 31
0.0
  0
ARC
  5
ABC
  8
0
  6
CONTINUOUS
 62
     7
 10
160.9074947806065
 20
30.5619145996518
 30
0.0
 40
0.210000000000008
 50
300.0
 51
119.9999999999999
  0
ARC
  5
ABD
  8
0
  6
CONTINUOUS
 62
     7
 10
157.31713883456831
 20
28.48902162772006
 30
0.0
 40
0.210000000000008
 50
119.9999999999999
 51
300.0
  0
LINE
  5
ABE
  8
0
  6
CONTINUOUS
 62
     7
 10
161.01249478060649
 20
30.380049264857071
 30
0.0
 11
157.4221388345683
 21
28.30715629292532
 31
0.0
  0
LINE
  5
ABF
  8
0
  6
CONTINUOUS
 62
     7
 10
157.21213883456829
 20
28.670886962514789
 30
0.0
 11
160.80476820520329
 21
30.745092496749479
 31
0.0
  0
ARC
  5
AC0
  8
0
  6
CONTINUOUS
 62
     7
 10
167.835698010882
 20
34.5619145996518
 30
0.0
 40
0.210000000000008
 50
300.0
 51
119.9999999999999
  0
ARC
  5
AC1
  8
0
  6
CONTINUOUS
 62
     7
 10
164.24534206484381
 20
32.489021627720049
 30
0.0
 40
0.210000000000008
 50
119.9999999999999
 51
300.0
  0
LINE
  5
AC2
  8
0
  6
CONTINUOUS
 62
     7
 10
167.94069801088199
 20
34.380049264857071
 30
0.0
 11
164.3503420648438
 21
32.307156292925313
 31
0.0
  0
LINE
  5
AC3
  8
0
  6
CONTINUOUS
 62
     7
 10
164.14034206484379
 20
32.670886962514793
 30
0.0
 11
167.73297143547879
 21
34.745092496749479
 31
0.0
  0
ARC
  5
AC4
  8
0
  6
CONTINUOUS
 62
     7
 10
174.7639012411575
 20
38.5619145996518
 30
0.0
 40
0.210000000000008
 50
300.0
 51
119.9999999999999
  0
ARC
  5
AC5
  8
0
  6
CONTINUOUS
 62
     7
 10
171.17354529511931
 20
36.489021627720049
 30
0.0
 40
0.210000000000008
 50
119.9999999999999
 51
300.0
  0
LINE
  5
AC6
  8
0
  6
CONTINUOUS
 62
     7
 10
174.86890124115749
 20
38.380049264857057
 30
0.0
 11
171.2785452951193
 21
36.307156292925313
 31
0.0
  0
LINE
  5
AC7
  8
0
  6
CONTINUOUS
 62
     7
 10
171.06854529511929
 20
36.670886962514793
 30
0.0
 11
174.66117466575429
 21
38.745092496749479
 31
0.0
  0
ARC
  5
AC8
  8
0
  6
CONTINUOUS
 62
     7
 10
181.692104471433
 20
42.5619145996518
 30
0.0
 40
0.210000000000008
 50
300.0
 51
119.9999999999999
  0
ARC
  5
AC9
  8
0
  6
CONTINUOUS
 62
     7
 10
178.10174852539481
 20
40.489021627720042
 30
0.0
 40
0.210000000000008
 50
119.9999999999999
 51
300.0
  0
LINE
  5
ACA
  8
0
  6
CONTINUOUS
 62
     7
 10
181.79710447143299
 20
42.380049264857057
 30
0.0
 11
178.2067485253948
 21
40.307156292925313
 31
0.0
  0
LINE
  5
ACB
  8
0
  6
CONTINUOUS
 62
     7
 10
177.99674852539479
 20
40.670886962514793
 30
0.0
 11
181.58937789602979
 21
42.745092496749479
 31
0.0
  0
ARC
  5
ACC
  8
0
  6
CONTINUOUS
 62
     7
 10
187.94177030790021
 20
46.170160852681313
 30
0.0
 40
0.210000000000008
 50
300.0
 51
119.9999999999999
  0
ARC
  5
ACD
  8
0
  6
CONTINUOUS
 62
     7
 10
184.35141436186191
 20
44.097267880749548
 30
0.0
 40
0.210000000000008
 50
119.9999999999999
 51
300.0
  0
LINE
  5
ACE
  8
0
  6
CONTINUOUS
 62
     7
 10
188.0467703079002
 20
45.988295517886563
 30
0.0
 11
184.4564143618619
 21
43.915402545954819
 31
0.0
  0
LINE
  5
ACF
  8
0
  6
CONTINUOUS
 62
     7
 10
184.24641436186189
 20
44.279133215544292
 30
0.0
 11
187.839043732497
 21
46.353338749778978
 31
0.0
  0
LINE
  5
AD0
  8
0
  6
STYLE_05
 62
     7
 10
88.467654506558489
 20
5.1377587163961378
 30
0.0
 11
198.42021773674111
 21
68.618900695431392
 31
0.0
  0
LINE
  5
AD1
  8
0
  6
STYLE_05
 62
     7
 10
98.467654506558489
 20
-12.182749359292631
 30
0.0
 11
88.467654506558489
 21
5.1377587163961378
 31
0.0
  0
LINE
  5
AD2
  8
0
  6
STYLE_05
 62
     7
 10
195.4298366799745
 20
43.798392619742629
 30
0.0
 11
98.467654506558489
 21
-12.182749359292631
 31
0.0
  0
LINE
  5
AD3
  8
0
  6
STYLE_05
 62
     7
 10
195.4298366799745
 20
43.798392619742629
 30
0.0
 11
198.42021773674111
 21
68.618900695431392
 31
0.0
  0
LINE
  5
AD4
  8
0
  6
CONTINUOUS
 62
     7
 10
62.392051516093183
 20
-23.77340414998184
 30
0.0
 11
60.392051516093169
 21
-20.309302534844079
 31
0.0
  0
LINE
  5
AD5
  8
0
  6
CONTINUOUS
 62
     7
 10
60.392051516093169
 20
-20.309302534844079
 30
0.0
 11
74.362793181182411
 21
-12.24329107372608
 31
0.0
  0
LINE
  5
AD6
  8
0
  6
CONTINUOUS
 62
     7
 10
62.392051516093183
 20
-23.77340414998184
 30
0.0
 11
76.362793181182411
 21
-15.707392688863839
 31
0.0
  0
POLYLINE
  5
AD7
  8
0
  6
CONTINUOUS
 62
     7
 66
     1
 10
0.0
 20
0.0
 30
0.0
 70
     1
  0
VERTEX
  5
11B2
  8
0
  6
CONTINUOUS
 62
     7
 10
72.843008080939356
 20
-9.6109460635189521
 30
0.0
  0
VERTEX
  5
11B3
  8
0
  6
CONTINUOUS
 62
     7
 10
84.880761193543094
 20
-2.6609460635189288
 30
0.0
  0
VERTEX
  5
11B4
  8
0
  6
CONTINUOUS
 62
     7
 10
90.380761193543108
 20
-12.187225505147749
 30
0.0
  0
VERTEX
  5
11B5
  8
0
  6
CONTINUOUS
 62
     7
 10
78.343008080939356
 20
-19.137225505147779
 30
0.0
  0
SEQEND
  5
11B6
  8
0
  6
CONTINUOUS
 62
     7
  0
LINE
  5
AD8
  8
0
  6
CONTINUOUS
 62
     7
 10
78.807491113764854
 20
-20.023756639491211
 30
0.0
 11
90.931846766747014
 21
-13.023756639491211
 31
0.0
  0
LINE
  5
AD9
  8
0
  6
CONTINUOUS
 62
     7
 10
78.843008080939356
 20
-20.003250908932209
 30
0.0
 11
78.343008080939356
 21
-19.137225505147779
 31
0.0
  0
LINE
  5
ADA
  8
0
  6
CONTINUOUS
 62
     7
 10
90.896329799572484
 20
-13.04426237005022
 30
0.0
 11
90.396329799572499
 21
-12.17823696626578
 31
0.0
  0
LINE
  5
ADB
  8
0
  6
CONTINUOUS
 62
     7
 10
83.807491113764854
 20
-28.6840106773356
 30
0.0
 11
95.931846766747014
 21
-21.684010677335589
 31
0.0
  0
LINE
  5
ADC
  8
0
  6
CONTINUOUS
 62
     7
 10
83.843008080939356
 20
-28.663504946776609
 30
0.0
 11
84.343008080939356
 21
-29.529530350561039
 31
0.0
  0
LINE
  5
ADD
  8
0
  6
CONTINUOUS
 62
     7
 10
95.896329799572484
 20
-21.704516407894602
 30
0.0
 11
103.3963297995725
 21
-34.694897464661182
 31
0.0
  0
LINE
  5
ADE
  8
0
  6
CONTINUOUS
 62
     7
 10
84.343008080939356
 20
-29.529530350561039
 30
0.0
 11
96.396329799572499
 21
-22.570541811679039
 31
0.0
  0
ARC
  5
ADF
  8
0
  6
CONTINUOUS
 62
     7
 10
81.307491113764854
 20
-24.353883658413409
 30
0.0
 40
5.0
 50
119.9999999999999
 51
300.0
  0
ARC
  5
AE0
  8
0
  6
CONTINUOUS
 62
     7
 10
93.431846766747014
 20
-17.353883658413402
 30
0.0
 40
5.0000000000000142
 50
300.0
 51
119.9999999999999
  0
LINE
  5
AE1
  8
0
  6
CONTINUOUS
 62
     7
 10
84.343008080939356
 20
-29.529530350561039
 30
0.0
 11
91.343008080939356
 21
-41.653886003543178
 31
0.0
  0
LINE
  5
AE2
  8
0
  6
CONTINUOUS
 62
     7
 10
91.343008080939356
 20
-41.653886003543178
 30
0.0
 11
103.3963297995725
 21
-34.694897464661182
 31
0.0
  0
LINE
  5
AE3
  8
0
  6
CONTINUOUS
 62
     7
 10
74.588643897392643
 20
-38.798521833600027
 30
0.0
 11
78.438643897392652
 21
-45.466917442740211
 31
0.0
  0
LINE
  5
AE4
  8
0
  6
CONTINUOUS
 62
     7
 10
74.588643897392643
 20
-38.798521833600027
 30
0.0
 11
79.776329096733392
 21
-32.803662458400161
 31
0.0
  0
LINE
  5
AE5
  8
0
  6
CONTINUOUS
 62
     7
 10
78.438643897392652
 20
-45.466917442740211
 30
0.0
 11
86.224187008101424
 21
-43.971679960874532
 31
0.0
  0
LINE
  5
AE6
  8
0
  6
CONTINUOUS
 62
     7
 10
84.343008080939356
 20
-29.529530350561039
 30
0.0
 11
82.338124445493477
 21
-30.687050457179598
 31
0.0
  0
LINE
  5
AE7
  8
0
  6
CONTINUOUS
 62
     7
 10
91.343008080939356
 20
-41.653886003543178
 30
0.0
 11
89.338124445493463
 21
-42.811406110161748
 31
0.0
  0
ARC
  5
AE8
  8
0
  6
CONTINUOUS
 62
     7
 10
87.338124445493506
 20
-39.347304495023963
 30
0.0
 40
9.999999999999984
 50
120.0
 51
139.12854192490229
  0
ARC
  5
AE9
  8
0
  6
CONTINUOUS
 62
     7
 10
84.338124445493406
 20
-34.151152072317387
 30
0.0
 40
9.9999999999999911
 50
280.8714580750995
 51
300.0
  0
LINE
  5
AEA
  8
0
  6
CONTINUOUS
 62
     7
 10
78.013643897392654
 20
-44.730795849523432
 30
0.0
 11
75.620647627224542
 21
-46.112392890274762
 31
0.0
  0
LINE
  5
AEB
  8
0
  6
CONTINUOUS
 62
     7
 10
72.620647627224514
 20
-40.91624046756813
 30
0.0
 11
75.013643897392654
 21
-39.5346434268168
 31
0.0
  0
TEXT
  5
AEC
  8
0
 62
     7
 10
79.679863667952063
 20
-13.0746107476097
 30
0.0
 40
2.6061458333333318
  1
H47
 50
29.99999999999973
 41
0.7
 11
78.376790751285412
 21
-10.817622249976059
 31
0.0
 73
     3
  0
POLYLINE
  5
AED
  8
0
  6
CONTINUOUS
 62
     7
 66
     1
 10
0.0
 20
0.0
 30
0.0
 70
     1
  0
VERTEX
  5
11B7
  8
0
  6
CONTINUOUS
 62
     7
 10
76.948954342100023
 20
-10.386699445468659
 30
0.0
  0
VERTEX
  5
11B8
  8
0
  6
CONTINUOUS
 62
     7
 10
83.270939789726441
 20
-6.7366994454686573
 30
0.0
  0
VERTEX
  5
11B9
  8
0
  6
CONTINUOUS
 62
     7
 10
85.720939789726444
 20
-10.98022392401241
 30
0.0
  0
VERTEX
  5
11BA
  8
0
  6
CONTINUOUS
 62
     7
 10
79.398954342100012
 20
-14.630223924012419
 30
0.0
  0
SEQEND
  5
11BB
  8
0
  6
CONTINUOUS
 62
     7
  0
LINE
  5
AEE
  8
0
  6
CONTINUOUS
 62
     7
 10
101.0213297995725
 20
-30.581276796685088
 30
0.0
 11
88.968008080939356
 21
-37.540265335567099
 31
0.0
  0
LINE
  5
AEF
  8
0
  6
CONTINUOUS
 62
     7
 10
86.718008080939356
 20
-33.643151018537118
 30
0.0
 11
98.771329799572499
 21
-26.684162479655129
 31
0.0
  0
ENDSEC
  0
EOF
